Cifras e Tablaturas
Green Day

Green Day

Stuart And The Avenue

Cifras Cancelar Versão de Impressão

Green Day - Stuart And The Avenue

Tom:

  			

 Stuart And The Ave.
 


Gb----------------------------------------2----------------
Db--0-0-0-4-2-0-2-2-2-2-2-4-5-----------5----5-4--2-04-----
Ab-----------------------------------5------------------2--
Eb----------------------------3--3-3-----------------------


Gb-------------------------------------------------------
Db--0-0-0-4-2-0--------------------------5---------------
Ab-------------------------------------5----0-0-0-0-0-0--
Eb---------------0-0-0-0-0-0-3-3-3-3-3-------------------

Gb----------------------------------------2-2-2-2-0------
Db--0-0-0-4-2-0-2-2-2-2-2-2-4-5-5-5-5-5-5-----------4-0--
Ab-------------------------------------------------------
Eb-------------------------------------------------------

Gb-------------------------------------------------------
Db--0-0-0-4-2-0---------------------------5--------------
Ab--------------------------------------5---0-0-0-0-0-0--
Eb---------------0-0-0-0-0-0-3-3-3-3-3-------------------

Gb----------------------------------------2-2-2-2-0------
Db--0-0-0-4-2-0-2-2-2-2-2-2-4-5-5-5-5-5-5-----------4-0--
Ab-------------------------------------------------------
Eb-------------------------------------------------------



Gb----------------------------0-0-0-0-0-0-2-2-2-2-2-2--
Db--0-0-0-4-2-0-2-2-2-2-2-2-4--------------------------
Ab-----------------------------------------------------
Eb-----------------------------------------------------

		       
Gb----------------------|---------------------------0-0-0-0-0-0-|-------------------
Db------4-2-------------|-0-0-0-4-2-0-2-2-2-2-2-2-4-------------|-0-0-0-0-0---------
Ab--2-2-----4-----------|---------------------------------------|----------0-0-0-0-0
Eb------------3-3-3-3-3-|---------------------------------------|-------------------

Gb--------------------------------------------------------
Db--0-0-0-4-2-0---------------------------5---------------
Ab-------------------------------------5-----0-0-0-0-0-0--
Eb---------------0-0-0-0-0-0-3-3-3-3-3--------------------

Gb----------------------------0-0-0-0-0-0-2-2-2-2-0------
Db--0-0-0-4-2-0-2-2-2-2-2-2-4-----------------------4-0--
Ab-------------------------------------------------------
Eb-------------------------------------------------------

Gb------------------------------------------------------------
Db--0-0-0-4-2-0--------------------------------5--------------
Ab-------------------------------------------5---0-0-0-0-0-0--
Eb--------------------0-0-0-0-0-0-3-3-3-3-3-------------------

Gb----------------------------0-0-0-0-0-0-2-2-2-2-0------
Db--0-0-0-4-2-0-2-2-2-2-2-2-4-----------------------4-0--
Ab-------------------------------------------------------
Eb-------------------------------------------------------

Gb----------------------------0-0-0-0-0-0-2-2-2-2-2-2--
Db--0-0-0-4-2-0-2-2-2-2-2-2-4--------------------------
Ab-----------------------------------------------------
Eb-----------------------------------------------------

		       
Gb-X2----------------|---------------------------0-0-0-0-0-0--|----------------------
Db----4-2------------|-0-0-0-4-2-0-2-2-2-2-2-2-4--------------|--0-0-0-0-0-----------
Ab-2-2---4-----------|----------------------------------------|------------0-0-0-0-0-
Eb---------3-3-3-3-3-|----------------------------------------|----------------------

Gb------------------------------------------------------
Db--0-0-0-4-2-0-------------------------5---0-0-0-0-0-0-
Ab------------------------------------5-----------------
Eb--------------0-0-0-0-0-3-3-3-3-3-3-------------------

Gb----------------------------0-0-0-0-0-0-2-0--------------
Db--0-0-0-4-2-0-2-2-2-2-2-2-4-----------------4--2-0-------
Ab---------------------------------------------------4-2-0-
Eb---------------------------------------------------------

Gb----------------------------0-0-0-0-0-0-2-2-2-2-2-2----
Db--0-0-0-4-2-0-2-2-2-2-2-2-4----------------------------
Ab-------------------------------------------------------
Eb-------------------------------------------------------

Gb------------------------------------------------------
Db--0-0-0-4-2-0-------------------------5---------------
Ab------------------------------------5----0-0-0-0-0-0--
Eb--------------0-0-0-0-0-3-3-3-3-3-3-------------------


Gb--------X2-----------|---------------------------0-0-0-0-0-0-|---X3--------------
Db------4-2------------|-0-0-0-4-2-0-2-2-2-2-2-2-4-------------|0-0-0-0-0----------
Ab--2-2-----4----------|---------------------------------------|---------0-0-0-0-0-
Eb-----------3-3-3-3-3-|---------------------------------------|-------------------

Enjoy this song (it has a great bass opening)
email me at [email protected] if you have any problems
                   -Downcast Bassist

    	
fixar
fixar inscrever-se

enviado porenviado por: anônimo
cifra enviadaCorrigida por: sem correções
logo top cifrasComente
ico música do artistaMúsicas deste artista
ico curtiuCurtiu?
ico destaqueDestaque
Petaxxon Comunicação Online

Cifras.com.br - Melhor e mais completo site de cifras e tablaturas do Brasil Mais de 1 milhão de acordes de músicas cadastradas desde 2003
As informações contidas no nosso site são colaborações de seus usuários e podem conter erros, sendo assim, não nos responsabilizamos sobre nenhuma destas.

close
menos
mais
close
Cor dos acordes:

Cor da letra:

close
Alinhar acordes a direita Alinhar acordes a esquerda Alinhar acordes em baixo Alinhar acordes no topo
close
  Mostrar todos os acordes Esconder acordes muito fáceis Esconder acordes fáceis Esconder acordes intermediários
redimensionar
glossário