Cifras e Tablaturas
Henry Cow

Henry Cow

Bittern Storm Over Ulm

Cifras Cancelar Versão de Impressão Print

Henry Cow - Bittern Storm Over Ulm

Tom:

  • 0:00 / 0:00
  			
verse 1 
G|-------------------------------|--------------------|-4--4-3--3-----| 
D|-----2--2-1--1-----------------|------2--2-1--1-----|-----------4--4| 
A|---------------2--2--4--------2|----------------2--2|---------------| 
E|-0----------------------1--2---|-0--0---------------|---------------| 

G|------5--5-4--4-----------------|------5--5-4--4-----|-5/12--12-11--11-------| 
D|----------------5--5--7---------|----------------5--5|-----------------12-0--| 
A|-3--3--------------------5--6---|-3--3---------------|-----------------------| 
E|-------------------------------3|--------------------|----------------------7| 

G|--------------------------------|--------------------|-----------------13/16--16-15---------| 
D|------7--7-6--6-----------------|------7--7-6--6-----|-7/14--14-13--13-----------------16---| 
A|----------------7--7--9---------|----------------7--7|------------------------------13------| 
E|-5--5--------------------6--7--0|-5--5---------------|------------------------------------14| 

verse 2 
G|-------------------------------|--------------------|-4--4-3--3-----| 
D|-----2--2-1--1-----------------|------2--2-1--1-----|-----------4--4| 
A|---------------2--2--4--------2|----------------2--2|---------------| 
E|-0----------------------1--2---|-0--0---------------|---------------| 

G|------5--5-4--4-----------------|------5--5-4--4-----|-5/12--12-11--11-------| 
D|----------------5--5--7---------|----------------5--5|-----------------12-0--| 
A|-3--3--------------------5--6---|-3--3---------------|-----------------------| 
E|-------------------------------3|--------------------|----------------------7| 

G|--------------------------------|--------------------|-----------------13/16--16-15---------| 
D|------7--7-6--6-----------------|------7--7-6--6-----|-7/14--14-13--13-----------------16---| 
A|----------------7--7--9---------|----------------7--7|------------------------------13------| 
E|-5--5--------------------6--7--0|-5--5---------------|------------------------------------14| 

verse 3 
G|-------------------------------|--------------------|-4--4-3--3-----| 
D|-----2--2-1--1-----------------|------2--2-1--1-----|-----------4--4| 
A|---------------2--2--4--------2|----------------2--2|---------------| 
E|-0----------------------1--2---|-0--0---------------|---------------| 

G|------5--5-4--4-----------------|------5--5-4--4-----|-5/12--12-11--11-------| 
D|----------------5--5--7---------|----------------5--5|-----------------12-0--| 
A|-3--3--------------------5--6---|-3--3---------------|-----------------------| 
E|-------------------------------3|--------------------|----------------------7| 

G|--------------------------------|--------------------|-----------------13/16--16-15---------| 
D|------7--7-6--6-----------------|------7--7-6--6-----|-7/14--14-13--13-----------------16---| 
A|----------------7--7--9---------|----------------7--7|------------------------------13------| 
E|-5--5--------------------6--7--0|-5--5---------------|------------------------------------14| 

verse 4 
G|-------------------------------|--------------------|-4--4-3--3-----| 
D|-----2--2-1--1-----------------|------2--2-1--1-----|-----------4--4| 
A|---------------2--2--4--------2|----------------2--2|---------------| 
E|-0----------------------1--2---|-0--0---------------|---------------| 

G|------5--5-4--4-----------------|------5--5-4--4-----|-5/12--12-11--11-------| 
D|----------------5--5--7---------|----------------5--5|-----------------12-0--| 
A|-3--3--------------------5--6---|-3--3---------------|-----------------------| 
E|-------------------------------3|--------------------|----------------------7| 

G|-------------------------------|--------------------| 
D|--------7-6--6-----------------|------7--7-6--6-----| 
A|---------------7--7--9---------|----------------7--7| 
E|-5--5-------------------6--7--0|-5--5---------------| 

G|-----------------13/16--16-15---------|-18--18-17---------| 
D|-7/14--14-13--13-----------------16---|--------------18---| 
A|------------------------------13------|-----------15------| 
E|------------------------------------14|-----------------16| 

G|--19--19--19-19-|-12--------9------|--4-4--4--4-4--4-|-----------9---10-9--| 
D|----------------|----12------------|-----------------|-------8-7---8-------| 
A|----------------|-------0-7-----0--|-----------------|-0-7-6---------------| 
E|----------------|-------------7---4|-----------------|---------------------| 

Outro 
G|------5---------5---|------4----------------|-----------------| 
D|--------------------|---------7--5----------|-----------------| 
A|-7---------6--------|-5-------------6--5----|-3----3----5-----| 
E|--------------------|---------------------6-|----------------3| 


************************************* 

| / Slide up 

************************************* 
    	

enviado porenviado por: alyslima
cifra enviadaCorrigida por: sem correções
logo top cifrasComente
ico música do artistaMúsicas deste artista
ico curtiuCurtiu?
ico destaqueDestaque
Petaxxon Comunicação Online

Cifras.com.br - Melhor e mais completo site de cifras e tablaturas do Brasil Mais de 1 milhão de acordes de músicas cadastradas desde 2003
As informações contidas no nosso site são colaborações de seus usuários e podem conter erros, sendo assim, não nos responsabilizamos sobre nenhuma destas.

close
menos
mais
close
Cor dos acordes:

Cor da letra:

close
Alinhar acordes a direita Alinhar acordes a esquerda Alinhar acordes em baixo Alinhar acordes no topo
close
  Mostrar todos os acordes Esconder acordes muito fáceis Esconder acordes fáceis Esconder acordes intermediários
redimensionar
glossário