Cifras e Tablaturas
Heroes del silencio
Cifras Cancelar Versão de Impressão Print

Heroes del silencio - Días De Borrasca

Tom:

  			                                                                          
G||------------------|------------------|------------------|------------------| 
D||------------------|------------------|------------------|------------------| 
A||------------------|------------------|------------------|------------------| 
E||------------------|------------------|------------------|------------------| 


                                                                  
------------------|------------------|--------------------------| 
------------------|------------------|--------------------------| 
------------------|------------------|--0--0--0--0--0--0--0--0--| 
------------------|------------------|--------------------------| 


                                                       
--------------------------|--------------------------| 
--------------------------|--------------------------| 
--------------------------|--0--0--0--0--0--0--0--0--| 
--1--1--1--1--1--1--1--1--|--------------------------| 


                                                       
--------------------------|--------------------------| 
--------------------------|--------------------------| 
--------------------------|--------------------------| 
--1--1--1--1--1--1--1--1--|--1--1--1--1--1--1--1--1--| 


                                                       
--------------------------|--------------------------| 
--------------------------|--------------------------| 
--------------------------|--------------------------| 
--1--1--1--1--1--1--1--1--|--1--1--1--1--1--1--1--1--| 


                                                       
--------------------------|--------------------------| 
--------------------------|--------------------------| 
--------------------------|--------------------------| 
--1--1--1--1--1--1--1--1--|--1--1--1--1--1--1--1--1--| 


                                                                   
--------------------------|-------------------|------------------| 
--------------------------|-------------------|------------------| 
--------------------------|--0----------------|------------------| 
--1--1--1--1--1--1--1--1--|-------------------|------------------| 


                                                                    
------------------|----------------------|------------------------| 
------------------|--------------0-------|------------0-----------| 
------------------|----------------3-2---|--0------0-----2--3--0--| 
------------------|--------------------1-|------------------------| 


                                                                    
-----------------------|-------------------|----------------------| 
------------------0----|-------------------|-----------------0----| 
---------------2-------|--0----------------|----------------------| 
--1--1----1------------|-------------------|--1--1----1-----------| 


                                                                      
------------------------|-----------------------|-------------------| 
------------0-----------|------------------0----|-------------------| 
--0------0-----2--3--0--|---------------2-------|--0----------------| 
------------------------|--1--1----1------------|-------------------| 


                                                                          
-----------------------|------------------------|-----------------------| 
------------------0----|------------0-----------|------------------0----| 
-------------0---------|--0------0-----2--3--0--|---------------2-------| 
--1--1----1------------|------------------------|--1--1----1------------| 


                                                                       
-------------------|------------------------|------------------------| 
-------------------|-------------------0----|------------0-----------| 
--0----------------|-------------0--2-------|--0------0-----2--3--0--| 
-------------------|--1--1----1-------------|------------------------| 


                                                                            
------------------------|------------------------|------------------------| 
-------------------0----|------------0-----------|-------------------0----| 
-------------0--2-------|--0------0-----2--3--0--|-------------0--2-------| 
--1--1----1-------------|------------------------|--1--1----1-------------| 


                                                                      
------------------------|-----------------------|-------------------| 
------------0-----------|------------------0----|-------------------| 
--0------0-----2--3--0--|---------------2-------|--0----------------| 
------------------------|--1--1----1------------|-------------------| 


                                                                         
----------------------|------------------------|-----------------------| 
-----------------0----|------------0-----------|------------------0----| 
----------------------|--0------0-----2--3--0--|---------------2-------| 
--1--1----1-----------|------------------------|--1--1----1------------| 


                                                                      
-------------------|-----------------------|------------------------| 
-------------------|------------------0----|------------0-----------| 
--0----------------|-------------0---------|--0------0-----2--3--0--| 
-------------------|--1--1----1------------|------------------------| 


                                                                      
-----------------------|-------------------|------------------------| 
------------------0----|-------------------|-------------------0----| 
---------------2-------|--0----------------|-------------0--2-------| 
--1--1----1------------|-------------------|--1--1----1-------------| 


                                                                                
-------------------------|--------------------------|-------------------------| 
-----------0--0----------|--------------------------|-----------0--0----------| 
--3------3--------3-1-1--|--------------1--1--1--1--|--3------3--------3-1-1--| 
-------------------------|--4--4--4--4--------------|-------------------------| 


                                                                                 
--------------------------|-------------------------|--------------------------| 
--------------------------|-----------0--0----------|--------------------------| 
--------------1--1--1--1--|--3------3--------3-1-1--|--------------1--1--1--1--| 
--4--4--4--4--------------|-------------------------|--4--4--4--4--------------| 


                                                      
-------------------------|--------------------------| 
-----------0--0----------|--------------------------| 
--3------3--------3-1-1--|--------------1--1--1--1--| 
-------------------------|--4--4--4--4--------------| 


                                                                       
----------------------------------|----------------------------------| 
----------------------------------|----------------------------------| 
----------3-1-------------3-1-----|----------3-1-------------3-1-----| 
--3-3-3-3-----4-3-3-3-3-3-----4-3-|--3-3-3-3-----4-3-3-3-3-3-----4-3-| 


                                                                      
----------------------------------|---------------------------------| 
----------------------------------|---------------------------------| 
--1-1-1-1-1-1-3-1-1-1-1-1-1-1-1-3-|---------------------------------| 
----------------------------------|--1-1-1-3-4-3-1-1-1-1-4-1--1-1-1-| 


                                                                       
----------------------------------|----------------------------------| 
----------------------------------|----------------------------------| 
----------3-1-------------3-1-----|----------3-1-------------3-1-----| 
--3-3-3-3-----4-3-3-3-3-3-----4-3-|--3-3-3-3-----4-3-3-3-3-3-----4-3-| 


                                                                       
----------------------------------|----------------------------------| 
----------------------------------|----------------------------------| 
--1-1-1-1-1-1-3-1-1-1-1-1-1-1-1-3-|----------------------------------| 
----------------------------------|--1-1-1-3-4-3-1-1-1-1-4-1-3-1-1-1-| 


                                                                       
----------------------------------|----------------------------------| 
----------------------------------|----------------------------------| 
----------------------------------|----------------------------------| 
--4-4-4-4-4-4-4-4-4-4-4-4-4-4-4-3-|--4-4-4-4-4-4-4-4-4-4-4-4-4-4-4-4-| 


                                                                       
----------------------------------|----------------------------------| 
----------------------------------|----------------------------------| 
--1-1-3-1-3-1-1-1-1-1---1-1-1-1-1-|--1-1-3-1-3-1-1-1-1-1---1-1-1-1-1-| 
----------------------4-----------|----------------------4-----------| 


                                                                       
----------------------------------|----------------------------------| 
----------------------------------|----------------------------------| 
----------------------------------|----------------------------------| 
--4-4-4-4-4-4-4-4-4-4-4-4-4-4-4-3-|--4-4-4-4-4-4-4-4-4-4-4-4-4-4-4-4-| 


                                                                       
----------------------------------|----------------------------------| 
----------------------------------|----------------------------------| 
----------------------------------|----------------------------------| 
--3-3-3-3-3-3-3-3-3-3-3-3-3-1-3-3-|--3-3-3-3-3-3-3-3-3-3-3-3-3-1-3-1-| 


                                                                       
----------------------------------|----------------------------------| 
----------------------------------|----------------------------------| 
----------------------------------|----------------------------------| 
--0-0-0-0-0-0-0-0-0-0-0-0-0-0-0-0-|--0-0-0-0-0-0-0-0-0-0-0-0-0-0-0-1-| 


                                                                       
----------------------------------|----------------------------------| 
----------------------------------|----------------------------------| 
----------------------------------|----------------------------------| 
--3-3-3-3-3-3-3-3-3-3-3-3-3-1-3-3-|--3-3-3-3-3-3-3-3-3-3-3-3-3-1-3-1-| 


                                                                       
----------------------------------|----------------------------------| 
----------------------------------|----------------------------------| 
----------------------------------|----------------------------------| 
--0-0-0-0-0-0-0-0-0-0-0-0-0-0-0-0-|--0-0-0-0-0-0-0-0-0-0-0-0-0-0-0-1-| 


                                                                      
------------------------|-----------------------|-------------------| 
------------0-----------|------------------0----|-------------------| 
--0------0-----2--3--0--|---------------2-------|--0----------------| 
------------------------|--1--1----1------------|-------------------| 


                                                                         
----------------------|------------------------|-----------------------| 
-----------------0----|------------0-----------|------------------0----| 
----------------------|--0------0-----2--3--0--|---------------2-------| 
--1--1----1-----------|------------------------|--1--1----1------------| 


                                                                      
-------------------|-----------------------|------------------------| 
-------------------|------------------0----|------------0-----------| 
--0----------------|-------------0---------|--0------0-----2--3--0--| 
-------------------|--1--1----1------------|------------------------| 


                                                                    
-----------------------|-------------------|----------------------| 
------------------0----|-------------------|-----------------0----| 
---------------2-------|--0----------------|----------------------| 
--1--1----1------------|-------------------|--1--1----1-----------| 


                                                                      
------------------------|-----------------------|-------------------| 
------------0-----------|------------------0----|-------------------| 
--0------0-----2--3--0--|---------------2-------|--0----------------| 
------------------------|--1--1----1------------|-------------------| 


                                                                              
-----------------------|-------------------------|--------------------------| 
------------------0----|-----------0--0----------|--------------------------| 
-------------0---------|--3------3--------3-1-1--|--------------1--1--1--1--| 
--1--1----1------------|-------------------------|--4--4--4--4--------------| 


                                                                                
-------------------------|--------------------------|-------------------------| 
-----------0--0----------|--------------------------|-----------0--0----------| 
--3------3--------3-1-1--|--------------1--1--1--1--|--3------3--------3-1-1--| 
-------------------------|--4--4--4--4--------------|-------------------------| 


                                                                                 
--------------------------|-------------------------|--------------------------| 
--------------------------|-----------0--0----------|--------------------------| 
--------------1--1--1--1--|--3------3--------3-1-1--|--------------1--1--1--1--| 
--4--4--4--4--------------|-------------------------|--4--4--4--4--------------| 


                                                                                
-------------------------|--------------------------|-------------------------| 
-----------0--0----------|--------------------------|-----------0--0----------| 
--3------3--------3-1-1--|--------------1--1--1--1--|--3------3--------3-1-1--| 
-------------------------|--4--4--4--4--------------|-------------------------| 


                                                                                 
--------------------------|-------------------------|--------------------------| 
--------------------------|-----------0--0----------|--------------------------| 
--------------1--1--1--1--|--3------3--------3-1-1--|--------------1--1--1--1--| 
--4--4--4--4--------------|-------------------------|--4--4--4--4--------------| 


                                                      
-------------------------|--------------------------| 
-----------0--0----------|--------------------------| 
--3------3--------3-1-1--|--------------1--1--1--1--| 
-------------------------|--4--4--4--4--------------| 


                                                                       
----------------------------------|----------------------------------| 
----------------------------------|--0-0-0-0-0-0-0-0-0-0-0-0-0-------| 
--0-0-0-0-0-0-0-0-0-0-0-0-0-0-0-0-|----------------------------3-2-2-| 
----------------------------------|----------------------------------| 


                                                                       
----------------------------------|----------------------------------| 
----------------------------------|--0-0-0-0-0-0-0-0-0-0-0-0-0-------| 
--0-0-0-0-0-0-0-0-0-0-0-0-0-0-0-0-|----------------------------3-3-2-| 
----------------------------------|----------------------------------| 


                                                                       
----------------------------------|----------------------------------| 
----------------------------------|--0-0-0-0-0-0-0-0-0-0-0-0-0-------| 
--0-0-0-0-0-0-0-0-0-0-0-0-0-0-0-0-|----------------------------3-3-0-| 
----------------------------------|----------------------------------| 


                                                                       
----------------------------------|----------------------------------| 
----------------------------------|--0-0-0-0-0-0-0-0-0-0-0-0-0-0-0-0-| 
--0-0-0-0-0-0-0-0-0-0-0-0-0-0-0-0-|----------------------------------| 
----------------------------------|----------------------------------|
    	
fixar
fixar inscrever-se

enviado porenviado por: JESSBT
cifra enviadaCorrigida por: sem correções
logo top cifrasComente
ico música do artistaMúsicas deste artista
ico curtiuCurtiu?
ico destaqueDestaque
Petaxxon Comunicação Online

Cifras.com.br - Melhor e mais completo site de cifras e tablaturas do Brasil Mais de 1 milhão de acordes de músicas cadastradas desde 2003
As informações contidas no nosso site são colaborações de seus usuários e podem conter erros, sendo assim, não nos responsabilizamos sobre nenhuma destas.

close
menos
mais
close
Cor dos acordes:

Cor da letra:

close
Alinhar acordes a direita Alinhar acordes a esquerda Alinhar acordes em baixo Alinhar acordes no topo
close
  Mostrar todos os acordes Esconder acordes muito fáceis Esconder acordes fáceis Esconder acordes intermediários
redimensionar
glossário