Cifras e Tablaturas
James Brown

James Brown

I Got You (I Feel Good) Tablatura de Baixo Verificada

Compositor : (James Brown)

Cifras Cancelar Versão de Impressão
cifras

James Brown - I Got You (I Feel Good)

fixar na tela  
Exibindo: vídeo-aula ver clipes redimensionar

Tom:

D

  
Verse: 

G|---7-5-7-5-7-5-7----7-5-----7-5-7-5-7-5-7---7-5-------------------| 
D|------------------------7-----------------------7---5-3-5-3-5-3-5-| 
A|-5----------------5-------5---------------5-----------------------| 
E|--------------------------------------------------3---------------| 

G|-----------7-5-7-5-7-5-7---7-5-----------------5-9-| 
D|---5-3-------------------------0-7-7-5-5---4-7-----| 
A|-------3-5---------------5---------------5---------| 
E|-3-------------------------------------------------| 

Chorus: 

G|--------------------------------------------------------------| 
D|--5--5--3--3--2--2--0--0-5--5--3--3--2--2---------------------| 
A|------------------------------------------3-4-5-5-3-3-2-2-0-0-| 
E|--------------------------------------------------------------| 

G|---------------------------------------------------| 
D|-----------------5-5-3-3-2-2-0-0-5-5-3-3-2-2-5-6-7-| 
A|-5-5-3-3-2-2-0-0-----------------------------------| 
E|---------------------------------------------------| 

End: 

G|-----------------5-9-7-5------------------| 
D|-7-7--5-5----4-7---------7-5-3------------| 
A|-----------5---------------------------5--| 
E|------------------------------------------| 

  

top 5 | james brown
top funk
Outras músicas do artista letras do(a) James Brown
Top cifras »Top artistas »
Petaxxon Comunicação Online
Cifras.com.br - Melhor e mais completo site de cifras e tablaturas do Brasil
Mais de 1 milhão de acordes de músicas cadastradas desde 2003
As informações contidas no nosso site são colaborações de seus usuários e podem conter erros, sendo assim, não nos responsabilizamos sobre nenhuma destas.
close
menos
mais
close
Cor dos acordes:

Cor da letra:

 

save
close
close
 
redimensionar