Cifras e Tablaturas
Jet

Jet

Are You Gonna Be My Girl Tablatura de Baixo Verificada

Compositor : (Cameron Muncey / Nic Cester)

Cifras Cancelar Versão de Impressão
cifras

Jet - Are You Gonna Be My Girl

fixar na tela  
Exibindo: vídeo-aula ver clipes redimensionar

Tom:

  
Intro: 

G|---------------------------------------------------------------| 
D|---------------------------------------------------------------| 
A|-------------------3-----------------------------------------3-| 
E|-5-5-5--5-5--0-3-0----5-5-5--5-5--0-3-0-3--5-5-5--5-5--0-3-0---| 

G|---------------------------| 
D|---------------------------| 
A|----3--5b---5--3-----------| 
E|-5---------------5-5--3--5-| 

Verse: 


G|---------------------------------------------------------------| 
D|---------------------------------------------------------------| 
A|-------------------3---------------------------3---------------| 
E|-5-5-5--5-5--0-3-0----5------5-5-5--5-5--0-3-0----5------------| 


G|-------------------------------------------------| 
D|-------------------------------------------------| 
A|-------------------------3------3--5b--5--3------| 
E|-0-3-4-5-5-5--5-5--0-3-0-----5---------------5-5-| 

Bridge: 

G|---------------------------------------------------------| 
D|---------------------------------------------------------| 
A|--5-5-5--3------5-5-5--3------5-5-5--3------5-5-5--3-----| 
E|-----------5-3-----------5-3-----------5-3-----------5-3-| 

Chorus: 

G|---------------------------------------------| 
D|-------------------------------------2-------| 
A|-0-0-0--0-0-0-0-0-2-0-3-3-3--3-3-2h3---5-5-5-| 
E|---------------------------------------------| 

G|--------------------------| 
D|-----7--------------------| 
A|-7h9---9-7\----------5-5--| 
E|-------------5-5-5--------| 

Especial: 

G|--------------------| 
D|--------------------| 
A|-7-7-7--7-7--10-10--| 
E|--------------------| 

Solo: 

G|--------------------------------------------------------------| 
D|-----5--------------------------------------------------------| 
A|-5-7----0-0-0--0-0-0-0-0-0-0-3-3-3--3-3-3-3-3--5-5-5--5-5-5-5-| 
E|--------------------------------------------------------------| 

G|--------------------| 
D|--------------------| 
A|--------------------| 
E|-5-5-5--5-5-0-3-0-3-| 

G|---------------------| 
D|----------7-5----5-7-| 
A|--------7-----7------| 
E|-5-5-5---------------| 

End: 

G|-----------------------------------------------| 
D|---------------------------------------2-------| 
A|-0-0-0--0-0-0-0-0-2-0-3-3-3--3-3-2h3-3---5-5-5-| 
E|-----------------------------------------------| 

G|----------------------------------| 
D|-----7----------------------------| 
A|-7h9---9-7\-------------------5-5-| 
E|-------------5-5-5--0-3-0-3-------| 

  

top 5 | jet
top punk rock
Outras músicas do artista letras do(a) Jet
Top cifras »Top artistas »
Petaxxon Comunicação Online
Cifras.com.br - Melhor e mais completo site de cifras e tablaturas do Brasil
Mais de 1 milhão de acordes de músicas cadastradas desde 2003
As informações contidas no nosso site são colaborações de seus usuários e podem conter erros, sendo assim, não nos responsabilizamos sobre nenhuma destas.
close
menos
mais
close
Cor dos acordes:

Cor da letra:

 

save
close
close
 
redimensionar