Cifras e Tablaturas
Joss Stone

Joss Stone

Super Duper Love

Cifras Cancelar Versão de Impressão
cifras

Joss Stone - Super Duper Love

fixar na tela  
Exibindo: vídeo-aula ver clipes redimensionar

Tom:

  Intro 

------------------------------------------------------------------ 
---------------------------5------------------------------5------- 
------5-x-7-5-7------5-5-7---7\------5-x-7-5-7------5-5-7---7----- 
-3-3------------5-5--------------3-3-----------5-5---------------- 



Verso 1 

------------------------------------------------------------------ 
---------------------------5------------------------------5------- 
------5-x-7-5-7------5-5-7---7\------5-x-7-5-7------5-5-7---7\---- 
-3-3------------5-5--------------3-3-----------5-5---------------- 


------------------------------------------------------------------ 
---------------------------5-------------------------------------- 
------5-x-7-5-7------5-5-7---7\------5-x-7-5-7-------------------- 
-3-3------------5-5--------------3-3-----------5-5---0-5---------- 



Verso 2 

------------------------------------------------------------------ 
------------------------------------------------------------------ 
------------------------------------------------------------------ 
-5--6--7-7--7-x-7-7--7-0-5-5--5-0-5------------------------------- 



------------------------------------------------------------------ 
------------------------------------------------------------------ 
------------------------------------------------------------------ 
-5--6--7-7--7-x-7-7--7-0-5-5--5-0-5------------------------------- 



------------------------------------------------------------------ 
------------------------------------------------------------------ 
------------------------------------------------------------------ 
-5--6--7-7--7-x-7-7--7-0-5-5--5-0-5------------------------------- 



------------------------------------------------------------------ 
-----------------------------------5------------------------------ 
-------------------------3--3--5-7---7\--------------------------- 
-5--6--7-7--7-x-7-7--3-5------------------------------------------ 



Refrão 

------------------------------------------------------------------ 
---------------------------5------------------------------5------- 
------5-x-7-5-7------5-5-7---7\------5-x-7-5-7------5-5-7---7----- 
-3-3------------5-5--------------3-3-----------5-5---------------- 


------------------------------------------------------------------ 
---------------------------5------------------------------5------- 
------5-x-7-5-7------5-5-7---7\------5-x-7-5-7------5-5-7---7----- 
-3-3------------5-5--------------3-3-----------5-5---------------- 


Verso 3 
  
------------------------------------------------------------------ 
---------------------------5------------------------------5------- 
------5-x-7-5-7------5-5-7---7\------5-x-7-5-7------5-5-7---7\---- 
-3-3------------5-5--------------3-3-----------5-5---------------- 


------------------------------------------------------------------- 
---------------------------5--------------------------------------- 
------5-x-7-5-7------5-5-7---7\------5-x-7-5-7--------------------- 
-3-3------------5-5--------------3-3-----------5-5---5-0-5--------- 


Verso 4 

------------------------------------------------------------------- 
------------------------------------------------------------------- 
------------------------------------------------------------------- 
-5--6--7-7--7-x-7-7--7-0-5-5--5-0-5-------------------------------- 



------------------------------------------------------------------- 
------------------------------------------------------------------- 
------------------------------------------------------------------- 
-5--6--7-7--7-x-7-7--7-0-5-5--5-0-5-------------------------------- 



------------------------------------------------------------------- 
------------------------------------------------------------------- 
------------------------------------------------------------------- 
-5--6--7-7--7-x-7-7--7-0-5-5--5-0-5-------------------------------- 



------------------------------------------------------------------- 
-----------------------------------5------------------------------- 
--------------------------3-3--5-7---7----------------------------- 
-5--6--7-7--7-x-7-7---7-0------------------------------------------ 

Solo guitarra 

------------------------------------------------------------------- 
---------------------------5--------------------------------------- 
------5-x-7-5-7------5-5-7---7\------5-x-7-5-7--------------------- 
-3-3------------5-5--------------3-3-----------5-5---5-0-5--------- 

Verso 4 igual ao 1  e depois refrão 
  

top 5 | joss stone
top rock'n roll
Outras músicas do artista letras do(a) Joss Stone
Top cifras »Top artistas »
Petaxxon Comunicação Online
Cifras.com.br - Melhor e mais completo site de cifras e tablaturas do Brasil
Mais de 1 milhão de acordes de músicas cadastradas desde 2003
As informações contidas no nosso site são colaborações de seus usuários e podem conter erros, sendo assim, não nos responsabilizamos sobre nenhuma destas.
close
menos
mais
close
Cor dos acordes:

Cor da letra:

 

save
close
close
 
redimensionar