Cifras e Tablaturas
Jota Quest

Jota Quest

Do seu Lado

Ano: 2003
Album : Rio de Janeiro 28/01/2005 ( Ao Vivo)
Compositor : (Nando Reis)

Cifras Cancelar Versão de Impressão

Jota Quest - Do seu Lado

Tom: D

  			Intro 
 
G|------------------------------------------ 
D|------------------------------------------   8x 
A|--5-5--3--5-3--5-5--3--5--3-5-5--3--5--3--  
E|------------------------------------------ 
 
1ª Parte 
     
G|------------------------------------------ 
D|------------------------------------------ 
A|--5-5--3--5-3--5-5--3--5--3--------------- 
E|------------------------------------------ 
     
G|------------------------------------------ 
D|------------------------------------------ 
A|------------------------------------------ 
E|--5-5--3--5-3--5-5--3--5--3--------------- 
                                                    2x 
G|------------------------------------------ 
D|------------------------------------------ 
A|--3-3--0--3-0--3-3--0--3--0--------------- 
E|------------------------------------------ 
     
G|------------------------------------------ 
D|------------------------------------------ 
A|--5-5--3--5-3--5-5--3--5------------------ 
E|------------------------------------------ 
 
2ª Parte 
     
G|------------------------------------------ 
D|------------------------------------------ 
A|--5-5--3--5-3--5-5--3--5--3--------------- 
E|------------------------------------------ 
     
G|------------------------------------------ 
D|------------------------------------------ 
A|------------------------------------------ 
E|--5-5--3--5-3--5-5--3--5--3--------------- 
                                                      2x 
G|------------------------------------------ 
D|------------------------------------------ 
A|--3-3--0--3-0----------------------------- 
E|---------------3-3--0--3--0--------------- 
     
G|------------------------------------------ 
D|------------------------------------------ 
A|--5-5--3--5-3--5-5--3--5------------------ 
E|------------------------------------------ 
 
3ª Parte 
 
 
G|------------------------------------------ 
D|------------------------------------------ 
A|--3-3-3-3-0---------5-5--3--5-3--5-5--3--5 
E|------------3-3-3-3----------------------- 
 
4ª Parte 
 
    
G|------------------------------------------ 
D|------------------------------------------ 
A|-------------------5-5--3--5-3--5--------- 
E|--0---------3--123------------------------ 
 
Refrão
 
     
G|------------------------------------------ 
D|------------------------------------------ 
A|--5-5--3--5-3--5-5--3--5-3---------------- 
E|------------------------------------------ 
     
G|------------------------------------------ 
D|--------3-5-7-10--7-7-5-2-0--------------- 
A|----3-5----------------------------------- 
E|--5--------------------------------------- 
     
G|------------------------------------------ 
D|------------------------------------------ 
A|--3-3--0--3-0--3-3--0--3--0--------------- 
E|------------------------------------------ 
     
G|------------------------------------------ 
D|------------------------------------------ 
A|--5-5--3--5-3--5-5--3--5-3---------------- 
E|------------------------------------------ 
     
G|------------------------------------------ 
D|------------------------------------------ 
A|--5-5--3--5-3--5-5--3--5-3---------------- 
E|------------------------------------------   
     
G|------------------------------------------ 
D|--------3-5-7-10--7-7-5-2-0--------------- 
A|----3-5----------------------------------- 
E|--5--------------------------------------- 
     
G|------------------------------------------ 
D|------------------------------------------ 
A|--3-3--0--3-0----------------------------- 
E|---------------3-3--0--3--0--------------- 
     
G|------------------------------------------ 
D|------------------------------------------ 
A|--5-5--3--5-3--5-5--3--5------------------ 
E|------------------------------------------ 
 
Daí repete a música inteira , depois o REFÃO. veleu ai pessoal se vocês 
ficarem com duvídas meu e-mail é : [email protected]  
    	
fixar
fixar inscrever-se

enviado porenviado por: FlavioBS
cifra enviadaCorrigida por: sem correções
logo top cifrasComente
ico música do artistaMúsicas deste artista
ico curtiuCurtiu?
ico destaqueDestaque
Petaxxon Comunicação Online

Cifras.com.br - Melhor e mais completo site de cifras e tablaturas do Brasil Mais de 1 milhão de acordes de músicas cadastradas desde 2003
As informações contidas no nosso site são colaborações de seus usuários e podem conter erros, sendo assim, não nos responsabilizamos sobre nenhuma destas.

close
menos
mais
close
Cor dos acordes:

Cor da letra:

close
Alinhar acordes a direita Alinhar acordes a esquerda Alinhar acordes em baixo Alinhar acordes no topo
close
  Mostrar todos os acordes Esconder acordes muito fáceis Esconder acordes fáceis Esconder acordes intermediários
redimensionar
glossário