Cifras e Tablaturas
Jota Quest

Jota Quest

Só Hoje

Ano: 2002
Album : Discotecagem Pop Variada
Compositor : (Fernando Mello / Rogério Flusino)

Cifras Cancelar Versão de Impressão Print

Jota Quest - Só Hoje

Tom: E

  			Hoje eu preciso... 
G||-----------------------|----------------------| | 
D||-----------------------|----------------------| | 
A||-----------------------|--2----2----2----2----| | 
E||---0----0----0----0----|----------------------| | 
 Casa depois                                     | | 2x 
G||-----------------------|----------------------| | 
D||-----------------------|----------------------| | 
A||---4----4----4---4-----|---0----0---0----0----| | 
E||-----------------------|----------------------| | 
 
{ }Hoje eu preciso ti abraçar... 
G||-----------------------|----------------------| | 
D||-----------------------|----------------------| |--> 4x 
A||-----------------------|--2----2----2----2----| | 
E||---2----2----2----2----|----------------------| | 
 
Hoje preciso de você... 
G||-----------------------|----------------------| | 
D||-----------------------|----------------------| | 
A||-----------------------|----------------------| | 
E||---0----0----0----0----|--2----2----2----2----| | 
                                                 | |-->2X (REFRAO) 
G||-----------------------|----------------------| | 
D||-----------------------|----------------------| | 
A||---2----2----2----2----|----------------------| | 
E||-----------------------|---0---0---0---0------| |(Corda A solta na segunda vez) 
 
G||-----------------------|----------------------| | 
D||-----------------------|----------------------| | 
A||---5----5----5----5----|--0----0----0----0----| | 
E||-----------------------|----------------------| | 
 
{ } 
 
G||-----------------------|----------------------| | 
D||-----------------------|----------------------| |--> 3x 
A||---5----5----5----5----|--0----0----0----0----| | -5--5---5--5- SOLO DO MEIO 
E||-----------------------|----------------------| | 
 
G||-----------------------|----------------------| 
D||-----------------------|----------------------| 
A||-----------------------|--5----5----5----5----| 
E||---3----3----3----3----|----------------------| 
 
 
G||-----------------------|----------------------| | 
D||-----------------------|----------------------| | 
A||-----------------------|--3----3----3----3----| | 
E||---0----0----0----0----|----------------------| | 
 
G||-----------------------|----------------------| | 
D||-----------------------|----------------------| |-->2X 
A||---0----0----0----0----|--5----5----5----5----| | 
E||-----------------------|----------------------| | 
 
 
G||-----------------------|----------------------| | 
D||-----------------------|----------------------| | 
A||-----------------------|--0----0----0----0----| | 
E||---3----3----3----3----|----------------------| | 
...                                                |--> 2x 
G||-----------------------|----------------------| | 
D||-----------------------|----------------------| | 
A||---5----5----5----5----|----------------------| | 
E||-----------------------|--3----3----3----3----| | 
 
 
G||-----------------------|----------------------| | 
D||-----------------------|----------------------| | 
A||---3----3----3----3----|----------------------| | 
E||-----------------------|--3----3----3----3----| | 
    	

enviado porenviado por: Timom
cifra enviadaCorrigida por: sem correções
logo top cifrasComente
ico música do artistaMúsicas deste artista
ico curtiuCurtiu?
ico destaqueDestaque
Petaxxon Comunicação Online

Cifras.com.br - Melhor e mais completo site de cifras e tablaturas do Brasil Mais de 1 milhão de acordes de músicas cadastradas desde 2003
As informações contidas no nosso site são colaborações de seus usuários e podem conter erros, sendo assim, não nos responsabilizamos sobre nenhuma destas.

close
menos
mais
close
Cor dos acordes:

Cor da letra:

close
Alinhar acordes a direita Alinhar acordes a esquerda Alinhar acordes em baixo Alinhar acordes no topo
close
  Mostrar todos os acordes Esconder acordes muito fáceis Esconder acordes fáceis Esconder acordes intermediários
redimensionar
glossário