Cifras e Tablaturas
Journey

Journey

Don't Stop Believin'

Ano: 1988
Album : Greatest Hits
Compositor : (Jonathan Cain / Steve Perry / Neal Schon)

Cifras Cancelar Versão de Impressão
cifras

Journey - Don't Stop Believin'

fixar na tela  
Exibindo: vídeo-aula ver clipes redimensionar

Tom:

A

  
Intro: 

G|----------------------------------------------------------------| 
D|------------------------------------------------6---------------| 
A|--------2--4-6-4--6-7-----6-7---------2--4-6------------6-7-----| 
E|-0--2-4---------------5--------0--2-4--------4----4--5--------0-| 

Part 1: 

G|--------------------------------------------------------------| 
D|-----------------------------------------------6--------------| 
A|------2--4-6---4--6-7----6-7--------2--4-6--------------------| 
E|-0--4-----------------5--------0--4---------4----4--5/---0--0-| 

Part 2: 

G|----------------------2-1----------------------------------| 
D|------------------4-2-----4-2------------------2-1---2-1-2-| 
A|-0-0-0-0-0-0-0-0--------------4--------------------2-------| 
E|--------------------------------0-0-0-0-0-0-0--------------| 

G|------------------------1----------------------------------| 
D|------------------4-2-----4-2------------------2-1---2-1-2-| 
A|-0-0-0-0-0-0-0-0--------------4--------------------2-------| 
E|--------------------------------0-0-0-0-0-0-0--------------| 

G|------------------------------------------------------| 
D|---------------7-6---7-6-7----------------2-1---2-1-2-| 
A|-0-0-0-0-0-0-0-----7--------------------------2-------| 
E|---------------------------0-0-0-0-0-0-0--------------| 

G|--------------------1----------------------| 
D|----------------4-2---4-2------------------| 
A|-0-0-0-0-0-0-0------------4---2-----2--0-0-| 
E|---------------------------------0---------| 

Part 3: 

G|----------------------------------------------------------------| 
D|----------------------------------------------------------------| 
A|----------------2--2-2-2-2--4-6-4--4-4-4-4--6-7-------------6-7-| 
E|-0-0-0-0-0--2-4---------------------------------5--5-5-5-5------| 

G|---------------------------------------------------------------| 
D|--------------------------------------------6------------------| 
A|-----------------2--2-2-2-2--4-6---------------------------6-7-| 
E|-0--0-0-0-0--2-4-----------------4--4-4-4-4---4-5--5-5-5-5-----| 
  

top 5 | journey
top rock clássico
Outras músicas do artista letras do(a) Journey
Top cifras »Top artistas »
Petaxxon Comunicação Online
Cifras.com.br - Melhor e mais completo site de cifras e tablaturas do Brasil
Mais de 1 milhão de acordes de músicas cadastradas desde 2003
As informações contidas no nosso site são colaborações de seus usuários e podem conter erros, sendo assim, não nos responsabilizamos sobre nenhuma destas.
close
menos
mais
close
Cor dos acordes:

Cor da letra:

 

save
close
close
 
redimensionar