Cifras e Tablaturas
Kid Abelha

Kid Abelha

Na rua na chuva na fazenda (acústico)

Cifras Cancelar Versão de Impressão

Kid Abelha - Na rua na chuva na fazenda (acústico)

Tom: Gm

  			     
Intro 
G|-------------------------------------------------------------------------------------------------| 
D|----------9-11-9--------------------9-11-9-------------------------------------------------------| 
A|--9--9-12--------9------9-9-9--9-12--------9------------------------------------------2> <14>9---| 
E|-------------------7-12----------------------7-8-9-9-9-9-7-9--5-7-5-7-8-9-9-9-9-7-9--------------| 


G|-------------------------------------------------------------------------------------------------| 
D|----------9-11-9--------------------9-11-9-------------------------------------------------------| 
A|--9--9-12--------9------9-9-9--9-12--------9---------------------------------------------<12>9---| 
E|-------------------7-12----------------------7-8-9-9-9-9-7-9--5-7-5-7-8-9-9-9-9-7-9--------------| 

 
       Não estou disposto... 
G|-------------------------------------------------------------------------------------------------| 
D|----------9-11-9--------------------9-11-9-------------------------------------------------------| 
A|--9--9-12--------9------9-9-9--9-12--------9----------------------------------------------45#~4--| 
E|-------------------7-12----------------------7-8-9-9-9-9-7-9--5-7-5-7-8-9-9-9-9-7-9---5-7--------| 


       Dizem que eu sou louco...    
G|-------------------------------------------------------------------------------------------------| 
D|----------9-11-9--------------------9-11-9-------------------------------------------------------| 
A|--9--9-12--------9------9-9-9--9-12--------9------------------------------------------2> <14>9---| 
E|-------------------7-12----------------------7-8-9-9-9-9-7-9--5-7-5-7-8-9-9-9-9-7-9--------------| 


<Refrão> 
    Jogue suas mãos..........................tiver, alguém.... 
G|-------------------------------------------------------------------------------------------| 
D|---------11-9h11-9---------------11-11-9------------9-7-7---7--9--------9-7-7---7-9-7------| 
A|--9-9-9-9--9-------9------9-9-9-9--9----9--9-7-7--7-------7------7-7--7-------7-------6-6--| 
E|---------------------7-12----------------7-------------------------------------------------| 

   Na rua, na chuva...                     ..sapê 
G|-------------------------------------------------------------------|------------------| 
D|-----------------------------8---8-6-6-----------------------------|------------------| 
A|-6--6-------------<6-6-6-6-6---6-------6----4--4--7--9--9--4--->16<|------------------| 
E|------4-4-4-4-4-4>-----------------------4-------------------------|------------------| 




 
      Não estou disposto... 
G|-------------------------------------------------------------------------------------------------| 
D|----------9-11-9--------------------9-11-9-------------------------------------------------------| 
A|--9--9-12--------9------9-9-9--9-12--------9----------------------------------------------45h6~4-| 
E|-------------------7-12----------------------7-8-9-9-9-9-7-9--5-7-5-7-8-9-9-9-9-7-9---5-7--------| 


       Dizem que eu sou louco...    
G|-------------------------------------------------------------------------------------------------| 
D|----------9-11-9--------------------9-11-9-------------------------------------------------------| 
A|--9--9-12--------9------9-9-9--9-12--------9------------------------------------------2> <14>9---| 
E|-------------------7-12----------------------7-8-9-9-9-9-7-9--5-7-5-7-8-9-9-9-9-7-9--------------| 


<Refrão> 
    Jogue suas mãos..........................tiver, alguém.... 
G|-------------------------------------------------------------------------------------------| 
D|---------11-9h11-9---------------11-11-9------------9-7-7---7--9--------9-7-7---7-9-7------| 
A|--9-9-9-9--9-------9------9-9-9-9--9----9--9-7-7--7-------7------7-7--7-------7-------6-6--| 
E|---------------------7-12----------------7-------------------------------------------------| 


   Na rua, na chuva...                     ..sapê 
G|-------------------------------------------------------6--6-4---4-6-------------6-6-6-4----| 
D|-----------------------------8---8-6-6-------------4-6--------6-------------4-6---------6--| 
A|-6--6-------------<6-6-6-6-6---6-------6----4--4-7------------------4-4-4-7----------------| 
E|------4-4-4-4-4-4>-----------------------4-------------------------------------------------| 



    Jogue suas mãos..........................tiver, alguém.... 
G|-------------------------------------------------------------------------------------------| 
D|---------11-9h11-9---------------11-11-9------------9-7-7---7--9--------9-7-7---7-9-7------| 
A|--9-9-9-9--9-------9------9-9-9-9--9----9--9-7-7--7-------7------7-7--7-------7-------6-6--| 
E|---------------------7-12----------------7-------------------------------------------------| 



  Na rua, na chuva...                     ..sapê 
G|-------------------------------------------------------------------------------------------| 
D|-----------------------------8---8-6-6-----------------------------------------------------| 
A|-6--6-------------<6-6-6-6-6---6-------6----4--4--7--9--9--4----4--4--7--9--9--4-----------| 
E|------4-4-4-4-4-4>-----------------------4-------------------------------------------------| 





Gil de Paula -  
    	
fixar
fixar inscrever-se

enviado porenviado por: GildePaula
cifra enviadaCorrigida por: sem correções
logo top cifrasComente
ico música do artistaMúsicas deste artista
ico curtiuCurtiu?
ico destaqueDestaque
Petaxxon Comunicação Online

Cifras.com.br - Melhor e mais completo site de cifras e tablaturas do Brasil Mais de 1 milhão de acordes de músicas cadastradas desde 2003
As informações contidas no nosso site são colaborações de seus usuários e podem conter erros, sendo assim, não nos responsabilizamos sobre nenhuma destas.

close
menos
mais
close
Cor dos acordes:

Cor da letra:

close
Alinhar acordes a direita Alinhar acordes a esquerda Alinhar acordes em baixo Alinhar acordes no topo
close
  Mostrar todos os acordes Esconder acordes muito fáceis Esconder acordes fáceis Esconder acordes intermediários
redimensionar
glossário