Cifras e Tablaturas
Kreator

Kreator

Coma Of Souls

Ano: 1991
Album : Enemy of God Revisited (CD/DVD)

Cifras Cancelar Versão de Impressão Print

Kreator - Coma Of Souls

Tom:

  • 0:00 / 0:00
  			PART 1 
|---------------------------------------------------| 
|---------------------------------------------------| 
|-------------------------------------------5-4-3---| 
|-65-3-3-0—0-0-0-0-0-0---65-3-3-0-------------------| 

PART 2 
|-----------------------------------| 
|-----------------------------------| 
|-----------------------------------| 
|-0-------------------------------0-| 

PART 3a                            PART 3b 
|----------------------------|     |-----------------------| 
|----------------------------|     |-----------------------| 
|-----5h6--3h4--------8------|     |------5h7----3------8--| 
|0----------------7h8--------|     |--000-----00---7h8-----| 

PART 3c                                         
|-------------------------------------------| |-------------------------------------------| 
|-------------------------------------------| |-------------------------------------------| 
|----5h6---3h4------------------------------| |-----5h6---3h4-----------------------------| 
|-00-----0------0-7h8-0-0-0-0-0-0-0---------| |-00------0------0-7h8-8-8-8-8-8-8-8--------| 


PART 4a 
|-------------------------------------------------------------------------------------------------| 
|-------------------------------------------------------------------------------------------------| 
|-------------------------------------------------------------------------------------------------| 
|-3—3-3-3-/-5—5-5-5-/-3—3-3-3-/-7—7-7-7-/-6—6-6-6-/-8—8-8-8-/-6—6-6-6-----------------------------| 

PART 4b 
|---------------------------------------------------------| 
|----------------------------------------------3-2----2---| 
|---------------------------------------------------3-----| 
|-2-2-2-2-2-2-0-0-0-0-0-0-2-2-2-2-2-2---------------------| 

PART 5a 
|------------------------------------| 
|------------------------------------|  
|------------------------------------| 
|-0-0-0-0-0-0-0-1-1-1-1-1-1-1--------| 

PART 5b 
|-------------------------------------------| 
|-------------------------------------------| 
|-------------------------------------------| 
|-2-2-2-2-2-/-4-4-4-4-4-/-6-6-6-6-6---------| 

PART 6a                                              
|-----------------------------------------------| |----------------------------------------------------| 
|-----------------------------------------------| |-------------------------9-8-7----------------------| 
|-----------------------------------------------| | --------------------------------9-8-7--------------| 
|-0-0-0-0-/-3-3-3-3-/-9-9-9-9-/-4-4-4-4---------| |-0-0-0-0-/-3-3-3-3-/--------------------9-8-7-6-----| 


TIMINGS 
PART 1  x 6 
PART 2  x 1 
PART 3  x 4 
PART 3b  x 4 
PART 3c  x 4 
PART 4a x 1 
PART 4b x 2 
PART 2 x 1 
PART 3a x 4 
PART 3c x 4 
PART 4a  x 1 
PART 4b x 2 
PART 5a x 4 
PART 5b x 4 
PART 6  x 4 
PART 1  x 6 
    	

enviado porenviado por: VELHO
cifra enviadaCorrigida por: sem correções
logo top cifrasComente
ico música do artistaMúsicas deste artista
ico curtiuCurtiu?
ico destaqueDestaque
Petaxxon Comunicação Online

Cifras.com.br - Melhor e mais completo site de cifras e tablaturas do Brasil Mais de 1 milhão de acordes de músicas cadastradas desde 2003
As informações contidas no nosso site são colaborações de seus usuários e podem conter erros, sendo assim, não nos responsabilizamos sobre nenhuma destas.

close
menos
mais
close
Cor dos acordes:

Cor da letra:

close
Alinhar acordes a direita Alinhar acordes a esquerda Alinhar acordes em baixo Alinhar acordes no topo
close
  Mostrar todos os acordes Esconder acordes muito fáceis Esconder acordes fáceis Esconder acordes intermediários
redimensionar
glossário