Cifras e Tablaturas
Legião Urbana

Legião Urbana

Quando o sol bater na janela do teu quarto (tab p/ baixo)

Cifras Cancelar Versão de Impressão Print

Legião Urbana - Quando o sol bater na janela do teu quarto (tab p/ baixo)

Tom:

  			 
G--------------|----------|------------------|---------------| 
D--------------|-5-5-5-5-5|-3-3-3-3--3--2--0-|-0-0-0-0-0-0-0-| 
A-3-3-3-3-3-3-3|----------|------------------|---------------| 
E--------------|----------|------------------|---------------| 
 
G-------------------|------------------------|-------------|--------------| 
D-5-5-5-5-5-5-5-5-5-|------------------------|-5-5-5-3-----|--------------| 
A-------------------|-8-8-8--7-7-7--5-5--3-3-|---------5-3-|-3-3-3-3-3-3-3| 
E-------------------|------------------------|-------------|--------------| 
 
G---------|----------------|---------------|------------------|------------- 
D-5-5-5-5-|-3-3-3--3--2--0-|-0-0-0-0-0-0-0-|-5-5-5-5-5-5-5-5--|------------- 
A---------|----------------|---------------|------------------|-8-8-8--7-7-7 
E---------|----------------|---------------|------------------|------------- 
 
G--------------|---|---|--|---| 
D--------------|---|---|--|---| 
A-5-5--3-3-3-3-|---|---|--|---| 
E--------------|1*-|3*-|1*|3*-| 
 
G----|---|--|---| 
D----|---|--|---| 
A----|---|--|---| 
E-1*-|3*-|1*|3*-| 
 
G--------------|----------|------------------|---------------| 
D--------------|-5-5-5-5-5|-3-3-3-3--3--2--0-|-0-0-0-0-0-0-0-| 
A-3-3-3-3-3-3-3|----------|------------------|---------------| 
E--------------|----------|------------------|---------------| 
 
G-------------------|------------------------|-------------|--------------| 
D-5-5-5-5-5-5-5-5-5-|------------------------|-5-5-5-3-----|--------------| 
A-------------------|-8-8-8--7-7-7--5-5--3-3-|---------5-3-|-3-3-3-3-3-3-3| 
E-------------------|------------------------|-------------|--------------| 
 
G---------|----------------|---------------|------------------|------------- 
D-5-5-5-5-|-3-3-3--3--2--0-|-0-0-0-0-0-0-0-|-5-5-5-5-5-5-5-5--|------------- 
A---------|----------------|---------------|------------------|-8-8-8--7-7-7 
E---------|----------------|---------------|------------------|------------- 
 
G--------------| 
D--------------| 
A-5-5--3-3-3-3-| 
E--------------| 
		X2 
G-------------------------|-----------------------------------|------------- 
D-------------5-5-5-5-5-5-|-----------------------------------|------------- 
A-5-5-5-5-5-5-------------|12-12-12-12-12-12-13-13-13-13-13-13|--8-8-8-8-8-8 
E-------------------------|-----------------------------------|------------- 
 
G----------------|----------------------------------------------------------- 
D-10-10-10-10-10-|-----------------12-12-12-12-12-12-12-12------------------- 
A----------------|10-10-10-10-10-10------------------------10-10-10-10-10-10- 
E----------------|----------------------------------------------------------- 
 
G--------------|----------|------------------|---------------| 
D--------------|-5-5-5-5-5|-3-3-3-3--3--2--0-|-0-0-0-0-0-0-0-| 
A-3-3-3-3-3-3-3|----------|------------------|---------------| 
E--------------|----------|------------------|---------------| 
 
G-------------------|------------------------|-------------|--------------| 
D-5-5-5-5-5-5-5-5-5-|------------------------|-5-5-5-3-----|--------------| 
A-------------------|-8-8-8--7-7-7--5-5--3-3-|---------5-3-|-3-3-3-3-3-3-3| 
E-------------------|------------------------|-------------|--------------| 
 
G---------|----------------|---------------|------------------|------------- 
D-5-5-5-5-|-3-3-3--3--2--0-|-0-0-0-0-0-0-0-|-5-5-5-5-5-5-5-5--|------------- 
A---------|----------------|---------------|------------------|-8-8-8--7-7-7 
E---------|----------------|---------------|------------------|------------- 
 
G--------------| 
D--------------| 
A-5-5--3-3-3-3-| 
E--------------| 
 
G----------------------------------------| 
D----------------------------------------| 
A-3-3-3-3-3-3----------------------------|UMAS VEZES E ENTÃO 
E-------------1-1-1-1-1-1--3-3-3-3-3-3-3-| 
 
G------------------------|-------------| 
D------------------------|-5-5-5-3-----| 
A-8-8-8--7-7-7--5-5--3-3-|---------5-3-| 
E------------------------|-------------| 
 
G--------------|----------|------------------|---------------| 
D--------------|-5-5-5-5-5|-3-3-3-3--3--2--0-|-0-0-0-0-0-0-0-| 
A-3-3-3-3-3-3-3|----------|------------------|---------------| 
E--------------|----------|------------------|---------------| 
 
G-------------------|------------------------|-------------|--------------| 
D-5-5-5-5-5-5-5-5-5-|------------------------|-5-5-5-3-----|--------------| 
A-------------------|-8-8-8--7-7-7--5-5--3-3-|---------5-3-|-3-3-3-3-3-3-3| 
E-------------------|------------------------|-------------|--------------| 
 
G---------|----------------|---------------|------------------|------------- 
D-5-5-5-5-|-3-3-3--3--2--0-|-0-0-0-0-0-0-0-|-5-5-5-5-5-5-5-5--|------------- 
A---------|----------------|---------------|------------------|-8-8-8--7-7-7 
E---------|----------------|---------------|------------------|------------- 
 
G--------------|	|------------------| 
D--------------|	|------------------| 
A-5-5--3-3-3-3-|E ENTÃO |-8-8-8--7-7-5-3-3-| VARIAS VEZES 
E--------------|	|------------------| 
  
 
 
_______________________________________________________ 
Contribuição: ([email protected]) 

    	

enviado porenviado por: anônimo
cifra enviadaCorrigida por: sem correções
logo top cifrasComente
ico música do artistaMúsicas deste artista
ico curtiuCurtiu?
ico destaqueDestaque
Petaxxon Comunicação Online

Cifras.com.br - Melhor e mais completo site de cifras e tablaturas do Brasil Mais de 1 milhão de acordes de músicas cadastradas desde 2003
As informações contidas no nosso site são colaborações de seus usuários e podem conter erros, sendo assim, não nos responsabilizamos sobre nenhuma destas.

close
menos
mais
close
Cor dos acordes:

Cor da letra:

close
Alinhar acordes a direita Alinhar acordes a esquerda Alinhar acordes em baixo Alinhar acordes no topo
close
  Mostrar todos os acordes Esconder acordes muito fáceis Esconder acordes fáceis Esconder acordes intermediários
redimensionar
glossário