Cifras e Tablaturas
Legião Urbana
Cifras Cancelar Versão de Impressão Print

Legião Urbana - Um Dia Perfeito

Tom: E

  			intro:  
 
G--------------------------------------------------------------------------- 
D-------7-----------7---4-------------4---2----------------------------        
A--------------------------------------------------------------------------- 
E--------------------------------------------------------------------------- 
 
 
G------------------------------------------------ 7-h--2------------------ 
D-----2----7-----------7---4-------------4------------------------------     
A--------------------------------------------------------------------------- 
E--------------------------------------------------------------------------- 
 
 
G-----0--------2---4---2--------------------------- 
D-----------------------------4----2----4----2-----   4x 
A----------------------------------------------------- 
E----------------------------------------------------- 
 
 
Quase morri.... 
 
corre corre corre..... 
 
G----0--------5------------5-h-7----------2------2 h 4--------------------- 
D-------------------------------------4-------------------------2-------0-- 
A-------------------------------------------------------------------------- 
E-------------------------------------------------------------------------- 
 
são as pequenas coisas... 
 
não vou me deixar embrutecer... 
 
G----0--------2---2 h 4------------------------------------------------------------ 
D--------------------------2-----0---------4-------2----4-----2-----4------2-----4- 
A---------------------------------------------------------------------------------- 
E---------------------------------------------------------------------------------- 
 
repete introdução 
 
 
final 
 
G--------------------------------------------------- 
D----------0---------3----------7---------------- 
A-------------------------------------------------- 
E-------------------------------------------------- 
    	

enviado porenviado por: eduardo_lyvio
cifra enviadaCorrigida por: sem correções
logo top cifrasComente
ico música do artistaMúsicas deste artista
ico curtiuCurtiu?
ico destaqueDestaque
Petaxxon Comunicação Online

Cifras.com.br - Melhor e mais completo site de cifras e tablaturas do Brasil Mais de 1 milhão de acordes de músicas cadastradas desde 2003
As informações contidas no nosso site são colaborações de seus usuários e podem conter erros, sendo assim, não nos responsabilizamos sobre nenhuma destas.

close
menos
mais
close
Cor dos acordes:

Cor da letra:

close
Alinhar acordes a direita Alinhar acordes a esquerda Alinhar acordes em baixo Alinhar acordes no topo
close
  Mostrar todos os acordes Esconder acordes muito fáceis Esconder acordes fáceis Esconder acordes intermediários
redimensionar
glossário