Cifras e Tablaturas
Louise Attaque

Louise Attaque

L Intranquillité

Cifras Cancelar Versão de Impressão

Louise Attaque - L Intranquillité

Tom:

  			
Intro 

G|-----------------|-----------------|-----------------|-----------------| 
D|-----------------|-----------------|-----------------|-----------------| 
A|----3------------|----3------------|----3------------|----3------------| 
E|-5-----3--5--5-3-|-5-----3--5--5-3-|-5-----3--5--5-3-|-5-----3--5--5-3-| 


Verse 

"Plus que du vent qui passe..." 
G|-----------------|-----------------|-----------------|-----------------| 
D|-----------------|-----------------|-----------------|-----------------| 
A|----3------------|----3------------|----3------------|----3------------| 
E|-5-----3--5--5-3-|-5-----3--5--5-3-|-5-----3--5--5-3-|-5-----3--5--5-3-| 


Bridge 

0:36 
G|-----------------|-----------------| 
D|-----------------|-----------------| 
A|----3------------|----3------------| 
E|-5-----3--5--5-3-|-5-----3--5--5-3-| 


Verse 

"Plus que du vent ne tombe..." 
G|-----------------|-----------------|-----------------|-----------------| 
D|-----------------|-----------------|-----------------|-----------------| 
A|----3------------|----3------------|----3------------|----3------------| 
E|-5-----3--5--5-3-|-5-----3--5--5-3-|-5-----3--5--5-3-|-5-----3--5--5-3-| 


Bridge 

1:00 
G|-----------------|-----------------| 
D|-----------------|-----------------| 
A|----3------------|----3------------| 
E|-5-----3--5--5-3-|-5-----3--5--5-3-| 


Chorus 

"Juste une idée passe..." 
G|-----------------|------------------|-----------------| 
D|----3------------|----3-------------|----3------------| 
A|-------3---------|-------3----------|-------3---------| 
E|-5-------3-5-----|-5-------3-5------|-5-------3-------| 


Post-Chorus 

1:20 
G|-----------------|-----------------|-----------------|-----------------| 
D|-----------------|-----------------|-----------------|-----------------| 
A|----3------------|----3------------|----3------------|----3------------| 
E|-5-----3--5--5-3-|-5-----3--5--5-3-|-5-----3--5--5-3-|-5-----3--5--5-3-| 


Verse 

"Plus que du vent chargé..." 
G|-----------------|-----------------|-----------------|-----------------| 
D|-----------------|-----------------|-----------------|-----------------| 
A|----3------------|----3------------|----3------------|----3------------| 
E|-5-----3--5--5-3-|-5-----3--5--5-3-|-5-----3--5--5-3-|-5-----3--5--5-3-| 


Bridge 

1:52 
G|-----------------|-----------------| 
D|-----------------|-----------------| 
A|----3------------|----3------------| 
E|-5-----3--5--5-3-|-5-----3--5--5-3-| 


Verse 

"Plus que du vent ne reste..." 
G|-----------------|-----------------|-----------------|-----------------| 
D|-----------------|-----------------|-----------------|-----------------| 
A|----3------------|----3------------|----3------------|----3------------| 
E|-5-----3--5--5-3-|-5-----3--5--5-3-|-5-----3--5--5-3-|-5-----3--5--5-3-| 


Bridge 

2:17 
G|-----------------|-----------------| 
D|-----------------|-----------------| 
A|----3------------|----3------------| 
E|-5-----3--5--5-3-|-5-----3--5--5-3-| 


Chorus 

"Juste une idée passe..." 
G|-----------------|------------------|-----------------| 
D|----3------------|----3-------------|----3------------| 
A|-------3---------|-------3----------|-------3---------| 
E|-5-------3-5-----|-5-------3-5------|-5-------3-------| 


Post-Chorus 

2:37 
G|-----------------|-----------------|-----------------|-----------------| 
D|-----------------|-----------------|-----------------|-----------------| 
A|----3------------|----3------------|----3------------|----3------------| 
E|-5-----3--5--5-3-|-5-----3--5--5-3-|-5-----3--5--5-3-|-5-----3--5--5-3-| 


Bridge 

G|-----------------|-----------------| 
D|-----------------|-----------------| 
A|----3------------|----3------------| 
E|-5-----3--5--5-3-|-5-----3--5--5-3-| 


Pre-Chorus 

3:01 
G|-----------------|-----------------| 
D|----3------------|----3------------| 
A|-------3---------|-------3---------| 
E|-5-------3-5-----|-5-------3-5-----| 


Chorus 

"Juste une idée passe..." 
G|-----------------|-----------------|-----------------|------------------| 
D|----3------------|----3------------|----3------------|------------------| 
A|-------3---------|-------3---------|-------3---------|------------------| 
E|-5-------3-5-----|-5-------3-5-----|-5-------3-5-----|---5---5---5------| 


Outro 

G|-----------------|-----------------|-----------------|-------------------| 
D|-----------------|-----------------|-----------------|-------3-2---------| 
A|---3-2-----------|---3-2-----------|---3-2-----------|---2-3-----0-0-----| 
E|-5-----0-3-1-0-3-|-5-----0-3-1-0-3-|-5-----0-3-1-0-3-|-5-----------------| 
    	
fixar
fixar inscrever-se

enviado porenviado por: gustsilva
cifra enviadaCorrigida por: sem correções
logo top cifrasComente
ico música do artistaMúsicas deste artista
ico curtiuCurtiu?
ico destaqueDestaque
Petaxxon Comunicação Online

Cifras.com.br - Melhor e mais completo site de cifras e tablaturas do Brasil Mais de 1 milhão de acordes de músicas cadastradas desde 2003
As informações contidas no nosso site são colaborações de seus usuários e podem conter erros, sendo assim, não nos responsabilizamos sobre nenhuma destas.

close
menos
mais
close
Cor dos acordes:

Cor da letra:

close
Alinhar acordes a direita Alinhar acordes a esquerda Alinhar acordes em baixo Alinhar acordes no topo
close
  Mostrar todos os acordes Esconder acordes muito fáceis Esconder acordes fáceis Esconder acordes intermediários
redimensionar
glossário