Cifras e Tablaturas
Lucybell

Lucybell

Mi Luz Crece

Compositor : (Claudio Valenzuela)

Cifras Cancelar Versão de Impressão Print

Lucybell - Mi Luz Crece

Tom:

  			TRANSCRIBED BY ALIBER ESCOBAR 

ALL THE SONG IS THE SAME EXCEPT IN THE BRIDGE WHEN MUSIC STOPS (PART 3)  
IT’S VERY EASY AND IF YOU WANT TO CONTACT ME FOR INFORMATION AND PETITIONS  
SEND ME AN E-MAIL TO: [email protected]  I WANT SOME LUCYBELL  
RECORDINGS SO IF YOU’RE IN CHILE COMMUNICATE WITH ME PLEASE! 


    part 1                                       7x  last round          
G---|-------------------------------------12-----||--------------------- 
D---|--------------------------11--h12----------*||--------------------- 
A---|--12----12----10----12---------------------*||--12----12----10----- 
E---|--------------------------------------------||--------------------- 
                                                                         

                                                                         
G------------------12\9----------------------------------------------- 
D------------11------------------------------------------------------- 
A-----12-------------------------------------------------------------- 
E--------------------------------------------------------------------- 
                                                                         

          part 2 ( 1 octave lower)   7x  last round                      
G------------------------------------||------------------------------ 
D--------------------------5--------*||----------------------5------- 
A---------------------4h5-----------*||-----------------4h5---------- 
E---------5--5--3--5-----------------||-----5--5--3--5----------5-\2--- 
                                                                         

  part 3 after pause  (slow part)                                                               
G|----------|----------|----------|-----------| 
D|----------|----------|----------|-----------| 
A|----------|----------|----------|-----3--3--| 
E|--3h5--5--|--3h5--5--|--5p3--3--|--3--------| 
                                                                         

    	
fixar
fixar inscrever-se

enviado porenviado por: carlluz
cifra enviadaCorrigida por: sem correções
logo top cifrasComente
ico música do artistaMúsicas deste artista
ico curtiuCurtiu?
ico destaqueDestaque
Petaxxon Comunicação Online

Cifras.com.br - Melhor e mais completo site de cifras e tablaturas do Brasil Mais de 1 milhão de acordes de músicas cadastradas desde 2003
As informações contidas no nosso site são colaborações de seus usuários e podem conter erros, sendo assim, não nos responsabilizamos sobre nenhuma destas.

close
menos
mais
close
Cor dos acordes:

Cor da letra:

close
Alinhar acordes a direita Alinhar acordes a esquerda Alinhar acordes em baixo Alinhar acordes no topo
close
  Mostrar todos os acordes Esconder acordes muito fáceis Esconder acordes fáceis Esconder acordes intermediários
redimensionar
glossário