Cifras e Tablaturas
Lulu Santos

Lulu Santos

Toda Forma de Amor

Compositor : (Lulu Santos / Ronaldo Bastos)

Cifras Cancelar Versão de Impressão Print

Lulu Santos - Toda Forma de Amor

Tom: A

  			iNTRO:
G-|---|------------------------------------------------------------------/-
D-|---|------------------------------------------------------------------/-
A-|-0-|-0-0-0-0-0-0-0-0-0-0-0-0-0-0-0------------------------------------/-
E-|---|-------------------------------0-2-2-2-2-2-2-2-2-2-2-2-2-2-2-2-2--/-

-/------------------------------------------------------------------|
-/-2-2-2-2-2-2-2-2-2-2-2-2-2-2-2------------------------------------|
-/-------------------------------0-5-5-5-5-5-5-5-5-5-5-5-5-5-5-6-7--|
-/------------------------------------------------------------------|

verso:

G-|---------------------------------------------------------------------/-
D-|-------------------------------------------4-------------------------/-
A-|-0-0--0-0--0--0--0-0-------------------------------------------------/-
E-|----------------------0-2--2-2--2--2--2-2----2--0-0--0-0--0--0--0-0--/-

-/--------------------------------|
-/----2-0--0-0--0--0-4---4-5-6-7--|
-/--2-----------------------------|
-/--------------------------------|

G-|---------------------------------------------------------------------/-
D-|-------------------------------------------4-------------------------/-
A-|-0-0--0-0--0--0--0-0-------------------------------------------------/-
E-|----------------------0-2--2-2--2--2--2-2----2--0-0--0-0--0--0--0-0--/-

-/--------------------------------|
-/----2-0--0-0--0--0--0-0-0-1-2---|
-/--2-----------------------------|
-/--------------------------------|

BRIDGE: "NA,NA,NA..."

G-|-------------------------------------------------------------------|
D-|--------------------------------7----------------------------------|
A-|--0-0-0-0-0-0-0-0-0-0-0-0-0-0-0---0-0-0-0-0-0-0-0-0-0-0-0-0-0-5-7--|
E-|-------------------------------------------------------------------|

REFRÃO:

G-|--------------------------------------------------------------------/-
D-|-----------2-2------------2-2------------3-3------------3-3---------/-
A-|----0-0-4------4---0-0-4------4---0-0-4------4---0-0-4-------4-5-5--/-
E-|-2---------------0--------------0--------------0--------------------/-

-/--------------------------------------------------------------|
-/--4--7-7-4--------4--7-7-4--------3--5-5-3---2-2-0-0----------|
-/------------0-5-5-----------0-5-5--------------------4-4-2----|
-/-----------------------------------------------------------0--|

Final:

G-|----------------------------------------|
D-|------4---7--4--------------4---2-------|
A-|--5------------7--------0----------0-0--|
E-|-------------------0--------------------|
    	
fixar
fixar inscrever-se

enviado porenviado por: anônimo
cifra enviadaCorrigida por: sem correções
logo top cifrasComente
ico música do artistaMúsicas deste artista
ico curtiuCurtiu?
ico destaqueDestaque
Petaxxon Comunicação Online

Cifras.com.br - Melhor e mais completo site de cifras e tablaturas do Brasil Mais de 1 milhão de acordes de músicas cadastradas desde 2003
As informações contidas no nosso site são colaborações de seus usuários e podem conter erros, sendo assim, não nos responsabilizamos sobre nenhuma destas.

close
menos
mais
close
Cor dos acordes:

Cor da letra:

close
Alinhar acordes a direita Alinhar acordes a esquerda Alinhar acordes em baixo Alinhar acordes no topo
close
  Mostrar todos os acordes Esconder acordes muito fáceis Esconder acordes fáceis Esconder acordes intermediários
redimensionar
glossário