Cifras e Tablaturas
Mamonas Assassinas

Mamonas Assassinas

Robocop Gay

Cifras Cancelar Versão de Impressão

Mamonas Assassinas - Robocop Gay

Tom: C G

  			 
  
Introdução: 
	(2x)	  	   (4x)		   (1x) 
G|------------2----|------------------|-----------  
D|-----2--5-----5--|------------2-----|----------- 
A|--3--------------|------2--5-----5--|--3--3-3-3- 
E|-----------------|--3---------------|----------- 
B|-----------------|------------------|----------- 
 
Um tanto quanto másculo... 
 
	  C		    G		  Variação 
G|------------2----|------------------|----2-3-------  
D|-----2--5-----5--|------------2-----|--------5-2---   
A|--3--------------|------2--5-----5--|--3---------3-  
E|-----------------|--3---------------|--------------  
B|-----------------|------------------|-------------- 
 
O meu bumbum era flácido... 
 
	  C		    G		  
G|-------------2----|-------------------|  
D|-----2--5-5----5--|-------------2-----|   
A|--3---------------|------2--55-----5--| 
E|------------------|--3----------------| 
B|------------------|-------------------| 
 
Um ser humano fantástico... 
 
  C		    G		  Variação 
G|------------2----|------------------|----2-3-------  
D|-----2--5-----5--|------------2-----|--------5-2---   
A|--3--------------|------2--5-----5--|--3---------3-  
E|-----------------|--3---------------|--------------  
B|-----------------|------------------|--------------- 
 
SOLO: 
 
G|------------------------------------------------------------------ 
D|------------------------------------------------------------------ 
A|----3-------3----------------------------------------------------- 
E|------5-3-5---5-3-3-3-3-------------------------------5-5-5-5-5-5- 
B|-------------------------6-5-3-5-6-5-3--1-1-1-1-1-1--------------- 
 
 
Abra sua mente... 
G|-------------------------------------------------------------------------- 
D|-------------------------------------------------------------------------- 
A|----3-3-3-3-3-3-3-3------------------------------------------------------- 
E|----------------------3-3-3-3-3-3-3-3---5-5-5-5-5-5-5-5---1-1-1-1-1-1-1-1- 
B|-------------------------------------------------------------------------- 
 
Faça uma plástica... 
G|--------------------------------------------------------------------------------- 
D|--5-3-2-3-5--3-2-2-2-2-2--------------------------------------------------------- 
A|-------------------------8-7-5-7-8--7-5-5-5-5-5---------------------------------- 
E|------------------------------------------------5-5-5-5-5-5-5-5--1-1-1-1-1-1-1-1- 
B|--------------------------------------------------------------------------------- 
 
Um tanto quanto másculo,Ai com "M" maísculo, 
Vejam só os meus músculos, que com amor cultivei... 
Minha pistola é de plástico, com formato cilíndrico 
Sempre me chamam de cínico, mas o por que eu não sei... 
O meu bumbum era flácido, mas esse assunto é tão místico 
Devido a um ato cirúrgico, eu hoje me transformei... 
O meu andar é erótico, com movimento atômicos, 
Soy um amante robótica com direito a replay... 
Um ser humano fantástico, com poderes titânicos, 
Foi um moreno simpático por quem me apaixonei... 
Hoje eu estou tão "eufavico", com mil pedaços piores, 
Ontem eu era católico, aí hoje eu sou um Gay... 
 
(Solo) 
 
Abra sua mente, Gay também é gente, baiano fala oxente e como vatapá.. 
Você pode der gática, ser Funk ou "isquinred", é fiquei com Moramed nem tanto camuflado (Aqui eu não sei o que ele fala) 
Faça a minha barba, arranque meu bigode, gaúcho também pode não tem que disfarçar.. 
Faça uma plástica, aí entre na ginastica boneca cibernética o robocop Gay... 
O robocop Gay... o robocop Gay... AAAAHHHH eu sei eu sei o robocop gay...   (Final) 
    	
fixar
fixar inscrever-se

enviado porenviado por: KURT CONBAI
cifra enviadaCorrigida por: sem correções
logo top cifrasComente
ico música do artistaMúsicas deste artista
ico curtiuCurtiu?
ico destaqueDestaque
Petaxxon Comunicação Online

Cifras.com.br - Melhor e mais completo site de cifras e tablaturas do Brasil Mais de 1 milhão de acordes de músicas cadastradas desde 2003
As informações contidas no nosso site são colaborações de seus usuários e podem conter erros, sendo assim, não nos responsabilizamos sobre nenhuma destas.

close
menos
mais
close
Cor dos acordes:

Cor da letra:

close
Alinhar acordes a direita Alinhar acordes a esquerda Alinhar acordes em baixo Alinhar acordes no topo
close
  Mostrar todos os acordes Esconder acordes muito fáceis Esconder acordes fáceis Esconder acordes intermediários
redimensionar
glossário