Cifras e Tablaturas
Mamonas Assassinas

Mamonas Assassinas

Chopis Centis

Ano: 2006
Album : Mamonas Assassinas ao Vivo

Cifras Cancelar Versão de Impressão Print

Mamonas Assassinas - Chopis Centis

Tom: A

  • 0:00 / 0:00
  			  
  
\- slide 
~ - vibrato 
 
Intro, ( depois da guitarra, na segunda vez , com um slide no Lá ) 
 
G|------------------------------------------------ 
D|------------------------------------------------   obs : o slide é 
A|-----------5-5-5--------------------------------   usado apenas uma vez. 
E|-17\5-5-5--------5-5-5-------------------------- 
 
 
Verso: 
 
G|------------------------------------------------------------ 
D|------------------------------------------------------------ 
A|-------5-5-5-5-5-5-5-7~~---------------------5-5-5---------- 
E|-------------------------------------5-5-5-----------5-5-5-- 
 
 
 
Refrão:  
 
 
G|------------------------------------------------------------ 
D|------------------------------------------------------------  Tocar 2x 
A|----5-5-5-5-5-5-5-7-7-7-7-7-7-7----------------------------- 
E|---------------------------------5-5-5-5-5-5-5-------------- 
 
 
Volta para a intro( dessa vez sem o slide e acompanhando a guitarra desde o inicio ) , 
ai vai para o verso , e a musica termina no refrão na nota Lá 
 
G|------ 
D|------ 
A|------ 
E|--5--- 
    	

enviado porenviado por: KURT CONBAI
cifra enviadaCorrigida por: sem correções
logo top cifrasComente
ico música do artistaMúsicas deste artista
ico curtiuCurtiu?
ico destaqueDestaque
Petaxxon Comunicação Online

Cifras.com.br - Melhor e mais completo site de cifras e tablaturas do Brasil Mais de 1 milhão de acordes de músicas cadastradas desde 2003
As informações contidas no nosso site são colaborações de seus usuários e podem conter erros, sendo assim, não nos responsabilizamos sobre nenhuma destas.

close
menos
mais
close
Cor dos acordes:

Cor da letra:

close
Alinhar acordes a direita Alinhar acordes a esquerda Alinhar acordes em baixo Alinhar acordes no topo
close
  Mostrar todos os acordes Esconder acordes muito fáceis Esconder acordes fáceis Esconder acordes intermediários
redimensionar
glossário