Cifras e Tablaturas
Mamonas Assassinas
Cifras Cancelar Versão de Impressão Print

Mamonas Assassinas - Débil Metal

Tom: F#

  • 0:00 / 0:00
  			 
  
E||--------------------------|-------------------------| 
B||--------------------------|-------------------------| 
G||--------------4--3--------|-------------------------| 
D||-----5--4--------------5--|--4----------------------| 
A||--------------------------|--------5--4-------------| 
E||--2--------2--------2-----|-----2----------0--0--0--| 
 
 
                                                                                 
--------------------------|-------------------------|--------------------------| 
--------------------------|-------------------------|--------------------------| 
--------------4--3--------|-------------------------|--------------4--3--------| 
-----5--4--------------5--|--4----------------------|-----5--4--------------5--| 
--------------------------|-------------------------|--------------------------| 
--2--------2--------2-----|-----2--5--4----0--0--0--|--2--------2--------2-----| 
 
 
                                                                                
-------------------------|--------------------------|-------------------------| 
-------------------------|--------------------------|-------------------------| 
-------------------------|--------------4--3--------|-------------------------| 
--4----------------------|-----5--4--------------5--|--4----------------------| 
--------5--4-------------|--------------------------|-------------------------| 
-----2----------0--0--0--|--2--------2--------2-----|-----2--5--4----0--0--0--| 
 
 
                                                                                 
--------------------------|-------------------------|--------------------------| 
--------------------------|-------------------------|--------------------------| 
--------------4--3--------|-------------------------|--------------4--3--------| 
-----5--4--------------5--|--4----------------------|-----5--4--------------5--| 
--------------------------|--------5--4-------------|--------------------------| 
--2--------2--------2-----|-----2----------0--0--0--|--2--------2--------2-----| 
 
 
                                                                                
-------------------------|--------------------------|-------------------------| 
-------------------------|--------------------------|-------------------------| 
-------------------------|--------------4--3--------|-------------------------| 
--4----------------------|-----5--4--------------5--|--4----------------------| 
-------------------------|--------------------------|--------5--4-------------| 
-----2--5--4----0--0--0--|--2--------2--------2-----|-----2----------0--0--0--| 
 
 
                                                                         
--------------------------|-------------------------|------------------| 
--------------------------|-------------------------|------------------| 
--------------4--3--------|-------------------------|------------------| 
-----5--4--------------5--|--4----------------------|------------------| 
--------------------------|-------------------------|------------------| 
--2--------2--------2-----|-----2--5--4----0--0--0--|------------------| 
 
 
                                                                             
------------------|------------------|------------------|------------------| 
------------------|------------------|------------------|------------------| 
------------------|------------------|------------------|------------------| 
------------------|------------------|------------------|------------------| 
------------------|------------------|------------------|------------------| 
------------------|------------------|------------------|------------------| 
 
 
                                                                             
------------------|------------------|------------------|------------------| 
------------------|------------------|------------------|------------------| 
------------------|------------------|------------------|------------------| 
------------------|------------------|------------------|------------------| 
------------------|------------------|------------------|------------------| 
------------------|------------------|------------------|------------------| 
 
 
                                                                             
------------------|------------------|------------------|------------------| 
------------------|------------------|------------------|------------------| 
------------------|------------------|------------------|------------------| 
------------------|------------------|------------------|------------------| 
------------------|------------------|------------------|------------------| 
------------------|------------------|------------------|------------------| 
 
 
                                                                             
------------------|------------------|------------------|------------------| 
------------------|------------------|------------------|------------------| 
------------------|------------------|------------------|------------------| 
------------------|------------------|------------------|------------------| 
------------------|------------------|------------------|------------------| 
------------------|------------------|------------------|------------------| 
 
 
                                                                             
------------------|------------------|------------------|------------------| 
------------------|------------------|------------------|------------------| 
------------------|------------------|------------------|------------------| 
------------------|------------------|------------------|------------------| 
------------------|------------------|------------------|------------------| 
------------------|------------------|------------------|------------------| 
 
 
                                                          
------------------|------------------|------------------| 
------------------|------------------|------------------| 
------------------|------------------|------------------| 
------------------|------------------|------------------| 
------------------|------------------|------------------| 
------------------|------------------|------------------| 
 
 
                                                                                 
--------------------------|-------------------------|--------------------------| 
--------------------------|-------------------------|--------------------------| 
--------------4--3--------|-------------------------|--------------4--3--------| 
-----5--4--------------5--|--4----------------------|-----5--4--------------5--| 
--------------------------|--------5--4-------------|--------------------------| 
--2--------2--------2-----|-----2----------0--0--0--|--2--------2--------2-----| 
 
 
                                                                                
-------------------------|--------------------------|-------------------------| 
-------------------------|--------------------------|-------------------------| 
-------------------------|--------------4--3--------|-------------------------| 
--4----------------------|-----5--4--------------5--|--4----------------------| 
-------------------------|--------------------------|--------5--4-------------| 
-----2--5--4----0--0--0--|--2--------2--------2-----|-----2----------0--0--0--| 
 
 
                                                                 
-------------------------|------------------|------------------| 
-------------------------|------------------|------------------| 
--------------4--3--3----|------------------|------------------| 
-----5--4----------------|------------------|------------------| 
-------------------------|------------------|------------------| 
--2--------2-------------|------------------|------------------| 
 
 
                                                                             
------------------|------------------|------------------|------------------| 
------------------|------------------|------------------|------------------| 
------------------|------------------|------------------|------------------| 
------------------|------------------|------------------|------------------| 
------------------|------------------|------------------|------------------| 
------------------|------------------|------------------|------------------| 
 
 
                                                                  
------------------|--------------------------|------------------| 
------------------|--------------------------|------------------| 
------------------|--------------------------|------------------| 
------------------|--------------------------|------------------| 
------------------|--------------------------|------------------| 
------------------|--------------------------|------------------| 
 
 
                                                                             
------------------|------------------|------------------|------------------| 
------------------|------------------|------------------|------------------| 
------------------|------------------|------------------|------------------| 
------------------|------------------|------------------|------------------| 
------------------|------------------|------------------|------------------| 
------------------|------------------|------------------|------------------| 
 
 
                                                                             
------------------|------------------|------------------|------------------| 
------------------|------------------|------------------|------------------| 
------------------|------------------|------------------|------------------| 
------------------|------------------|------------------|------------------| 
------------------|------------------|------------------|------------------| 
------------------|------------------|------------------|------------------| 
 
 
                                                          
------------------|------------------|------------------| 
------------------|------------------|------------------| 
------------------|------------------|------------------| 
------------------|------------------|------------------| 
------------------|------------------|------------------| 
------------------|------------------|------------------| 
 
 
                                                                     
--------------------------|--------------------------|-------------| 
--------------------------|--------------------------|-------------| 
-----------------------4--|--3--------------4--3-----|-------------| 
--------------5--4--------|--------5--4-----------2--|-------------| 
--------------------------|--------------------------|-------------| 
--0--0--0--2--------2-----|-----2--------2-----------|----0--0--0--| 
 
 
                                                                                 
--------------------------|-------------------------|--------------------------| 
--------------------------|-------------------------|--------------------------| 
--------------4--3--------|-------------------------|--------------4--3--------| 
-----5--4--------------5--|--4----------------------|-----5--4--------------5--| 
--------------------------|--------5--4-------------|--------------------------| 
--2--------2--------2-----|-----2----------0--0--0--|--2--------2--------2-----| 
 
 
                                                                                
-------------------------|--------------------------|-------------------------| 
-------------------------|--------------------------|-------------------------| 
-------------------------|--------------4--3--------|-------------------------| 
--4----------------------|-----5--4--------------5--|--4----------------------| 
-------------------------|--------------------------|--------5--4-------------| 
-----2--5--4----0--0--0--|--2--------2--------2-----|-----2----------0--0--0--| 
 
 
                                                                         
--------------------------|-------------------------|------------------| 
--------------------------|-------------------------|------------------| 
--------------4--3--------|-------------------------|------------------| 
-----5--4--------------5--|--4----------------------|------------------| 
--------------------------|-------------------------|------------------| 
--2--------2--------2-----|-----2--5--4----0--0--0--|------------------| 
 
 
                                                                             
------------------|------------------|------------------|------------------| 
------------------|------------------|------------------|------------------| 
------------------|------------------|------------------|------------------| 
------------------|------------------|------------------|------------------| 
------------------|------------------|------------------|------------------| 
------------------|------------------|------------------|------------------| 
 
 
                                                                             
------------------|------------------|------------------|------------------| 
------------------|------------------|------------------|------------------| 
------------------|------------------|------------------|------------------| 
------------------|------------------|------------------|------------------| 
------------------|------------------|------------------|------------------| 
------------------|------------------|------------------|------------------| 
 
 
                                                                             
------------------|------------------|------------------|------------------| 
------------------|------------------|------------------|------------------| 
------------------|------------------|------------------|------------------| 
------------------|------------------|------------------|------------------| 
------------------|------------------|------------------|------------------| 
------------------|------------------|------------------|------------------| 
 
 
                                                          
------------------|------------------|------------------| 
------------------|------------------|------------------| 
------------------|------------------|------------------| 
------------------|------------------|------------------| 
------------------|------------------|------------------| 
------------------|------------------|------------------| 
 
 
                                                       
--------------------------|--------------------------| 
--------8--------7--------|--8--------7--------7h-8--| 
-----7--------7--------7--|--------7--------7--------| 
--9--------9--------9-----|-----9--------9-----------| 
--------------------------|--------------------------| 
--------------------------|--------------------------| 
 
 
                                                       
--------------------------|--------------------------| 
--------8--------7--------|--8--------7--------7h-8--| 
-----7--------7--------7--|--------7--------7--------| 
--7--------7--------7-----|-----7--------7-----------| 
--------------------------|--------------------------| 
--------------------------|--------------------------| 
 
 
                                                       
--------------------------|--------------------------| 
--------8--------7--------|--8--------7--------7h-8--| 
-----7--------7--------7--|--------7--------7--------| 
--5--------5--------5-----|-----5--------5-----------| 
--------------------------|--------------------------| 
--------------------------|--------------------------| 
 
 
                                                                           
--------------------------|-------------------|--------------------------| 
--------8--------7--------|--8----------------|--------------------------| 
-----7--------7--------7--|-------------------|--------------4--3--------| 
--7--------7--------7-----|-------------------|-----5--4--------------5--| 
--------------------------|-------------------|--------------------------| 
--------------------------|-------------------|--2--------2--------2-----| 
 
 
                                                                                
-------------------------|--------------------------|-------------------------| 
-------------------------|--------------------------|-------------------------| 
-------------------------|--------------4--3--------|-------------------------| 
--4----------------------|-----5--4--------------5--|--4----------------------| 
--------5--4-------------|--------------------------|-------------------------| 
-----2----------0--0--0--|--2--------2--------2-----|-----2--5--4----0--0--0--| 
 
 
                                                                                 
--------------------------|-------------------------|--------------------------| 
--------------------------|-------------------------|--------------------------| 
--------------4--3--------|-------------------------|--------------4--3--------| 
-----5--4--------------5--|--4----------------------|-----5--4--------------5--| 
--------------------------|--------5--4-------------|--------------------------| 
--2--------2--------2-----|-----2----------0--0--0--|--2--------2--------2-----| 
 
 
                                               
-------------------------|------------------|| 
-------------------------|------------------|| 
-------------------------|------------------|| 
--4----------------------|------------------|| 
-------------------------|------------------|| 
-----2--5--4----0--0--0--|------------------||
    	

enviado porenviado por: KURT CONBAI
cifra enviadaCorrigida por: sem correções
logo top cifrasComente
ico música do artistaMúsicas deste artista
ico curtiuCurtiu?
ico destaqueDestaque
Petaxxon Comunicação Online

Cifras.com.br - Melhor e mais completo site de cifras e tablaturas do Brasil Mais de 1 milhão de acordes de músicas cadastradas desde 2003
As informações contidas no nosso site são colaborações de seus usuários e podem conter erros, sendo assim, não nos responsabilizamos sobre nenhuma destas.

close
menos
mais
close
Cor dos acordes:

Cor da letra:

close
Alinhar acordes a direita Alinhar acordes a esquerda Alinhar acordes em baixo Alinhar acordes no topo
close
  Mostrar todos os acordes Esconder acordes muito fáceis Esconder acordes fáceis Esconder acordes intermediários
redimensionar
glossário