Cifras e Tablaturas
Mamonas Assassinas

Mamonas Assassinas

Pelados em Santos

Ano: 2006
Album : Mamonas Assassinas ao Vivo

Cifras Cancelar Versão de Impressão Print

Mamonas Assassinas - Pelados em Santos

Tom: D

  • 0:00 / 0:00
  			 
  
G |-77-----7----8-----7----8------------------| 
D |----7-9--9-7---7-9--9-7----------------------| 
A |-----------------------------------------| 
E |-----------------------------------------| 
 
 
G |-888-----7-7-8-8-777------------------------| 
D |-----9-7------------9-7---------------| 
A |-----------------------------------------| 
E |-----------------------------------------| 
 
G |------7-----88-----8-----88-------------| 
D |--7-9---9-7----7-9---9-7------------------| 
A |-----------------------------------------| 
E |-----------------------------------------| 
 
G |-8888-------7-88-77------------------------| 
D |------9-7-7---------9-7----------------| 
A |-----------------------------------------| 
E |-----------------------------------------| 
 
G |-7---------------------------------| 
D |---9-7-77-9-77---------------------------| 
A |----------------------------------| 
E |----------------------------------| 
  
  
 

    	

enviado porenviado por: KURT CONBAI
cifra enviadaCorrigida por: sem correções
logo top cifrasComente
ico música do artistaMúsicas deste artista
ico curtiuCurtiu?
ico destaqueDestaque
Petaxxon Comunicação Online

Cifras.com.br - Melhor e mais completo site de cifras e tablaturas do Brasil Mais de 1 milhão de acordes de músicas cadastradas desde 2003
As informações contidas no nosso site são colaborações de seus usuários e podem conter erros, sendo assim, não nos responsabilizamos sobre nenhuma destas.

close
menos
mais
close
Cor dos acordes:

Cor da letra:

close
Alinhar acordes a direita Alinhar acordes a esquerda Alinhar acordes em baixo Alinhar acordes no topo
close
  Mostrar todos os acordes Esconder acordes muito fáceis Esconder acordes fáceis Esconder acordes intermediários
redimensionar
glossário