Cifras e Tablaturas
Mamonas Assassinas

Mamonas Assassinas

Vira - Vira

Cifras Cancelar Versão de Impressão

Mamonas Assassinas - Vira - Vira

Tom:

  			H: hammer on 
 
~ : vibrato 
 
 
Intro: junto com o solo de guitarra 
 
G|---10-9-7-5-5-5-7-9-10-10-10-9-7-5-5-5-7-9-10----------------------- 
D|-------------------------------------------------------------------- 
A|-------------------------------------------------------------------- 2X 
E|-------------------------------------------------------------------- 
 
Oh Raios ! ( são as mesmas notas acima apenas + graves ) 
 
G|-------------------------------------------------------------------- 
D|-------------------------------------------------------------------- 
A|--8-7-5-3-3-3-5-7-8-8-8-7-5-3-3-3-5-7-8----------------------------- 
E|-------------------------------------------------------------------- 
 
Verso: 
 
G|-------------------------------------------------------------------- 
D|-------------------------------------------------------------------- 
A|--------------3--3--3--3----------------------------3--3--3--------- 
E|--1--1--1--------------------1--1--1--1--1-------------------------- 
                                      
 
Variação do verso : 
 
G|-------------------------------------------------------------------- 
D|-------------------------------------------------------------------- 
A|------------3-3--3--3--3--3------------5---3------------------------ 
E|--1--1--1---------------------1---5--------------------------------- 
 
Refrão : 
 
Roda, roda e vira ... 
 
 
G|-------------------------------------------------------------------- 
D|-------------------------------------------------------------------- 
A|---------1-1-1---------1-1-1---------------------------------------- 
E|--3-3-3---------3-3-3----------------------------------------------- 
 
Nesse raio de suruba... 
 
G|-------------------------------------------------------------------- 
D|-------------------------------------------------------------------- 
A|-1-1-0h1-1-1-3~~---------------------------------------------------- 
E|-------------------------------------------------------------------- 
 
 
 
Ai o resto da musica eh a parte "oh raios!" verso, refrão 
 
Ai a musica acaba no Fá 
 
 
 
G|-------- 
D|-------- 
A|---8---- 
E|-------- 
    	
fixar
fixar inscrever-se

enviado porenviado por: KURT CONBAI
cifra enviadaCorrigida por: sem correções
logo top cifrasComente
ico música do artistaMúsicas deste artista
ico curtiuCurtiu?
ico destaqueDestaque
Petaxxon Comunicação Online

Cifras.com.br - Melhor e mais completo site de cifras e tablaturas do Brasil Mais de 1 milhão de acordes de músicas cadastradas desde 2003
As informações contidas no nosso site são colaborações de seus usuários e podem conter erros, sendo assim, não nos responsabilizamos sobre nenhuma destas.

close
menos
mais
close
Cor dos acordes:

Cor da letra:

close
Alinhar acordes a direita Alinhar acordes a esquerda Alinhar acordes em baixo Alinhar acordes no topo
close
  Mostrar todos os acordes Esconder acordes muito fáceis Esconder acordes fáceis Esconder acordes intermediários
redimensionar
glossário