Cifras e Tablaturas
Mano Negra

Mano Negra

Señor Matanza

Cifras Cancelar Versão de Impressão Print

Mano Negra - Señor Matanza

Tom:

  			Intro 

G|-----------------| 
D|-----------------| 
A|-0h2-2-2---------| x26 
E|---------0-0-0-0-| 


verse 1 

G|-----------------| 
D|-----------------| 
A|-0h2-2-2---------| x30 
E|---------0-0-0-0-| 


Chorus 

G|-----------------| 
D|-----------------| 
A|-0h2-2-2---------| x8 
E|---------0-0-0-0-| 



verse 2 

G|-----------------| 
D|-----------------| 
A|-0h2-2-2---------| x16 
E|---------0-0-0-0-| 


Chorus 

G|-----------------| 
D|-----------------| 
A|-0h2-2-2---------| x16 
E|---------0-0-0-0-| 


Bridge 

G|-----------------| 
D|-----------------| 
A|-0h2-2-2---------| x32 
E|---------0-0-0-0-| 


Chorus 

G|-----------------| 
D|-----------------| 
A|-0h2-2-2---------| x24 
E|---------0-0-0-0-| 


Outro 

G|-----------------| 
D|-----------------| 
A|-0h2-2-2---------| x38 
E|---------0-0-0-0-| 



************************************ 

| h  Hammer-on 

************************************ 
    	
fixar
fixar inscrever-se

enviado porenviado por: aleffederico
cifra enviadaCorrigida por: sem correções
logo top cifrasComente
ico música do artistaMúsicas deste artista
ico curtiuCurtiu?
ico destaqueDestaque
Petaxxon Comunicação Online

Cifras.com.br - Melhor e mais completo site de cifras e tablaturas do Brasil Mais de 1 milhão de acordes de músicas cadastradas desde 2003
As informações contidas no nosso site são colaborações de seus usuários e podem conter erros, sendo assim, não nos responsabilizamos sobre nenhuma destas.

close
menos
mais
close
Cor dos acordes:

Cor da letra:

close
Alinhar acordes a direita Alinhar acordes a esquerda Alinhar acordes em baixo Alinhar acordes no topo
close
  Mostrar todos os acordes Esconder acordes muito fáceis Esconder acordes fáceis Esconder acordes intermediários
redimensionar
glossário