Cifras e Tablaturas
Natiruts

Natiruts

Quero ser feliz também

Cifras Cancelar Versão de Impressão

Natiruts - Quero ser feliz também

Tom: D#m7

  			_________________________ 
Marcelo Garcia - Salvador - BA 
[email protected] 
_________________________ 


Quero ser feliz também 


Introdução(repete 2x) 
E--------------------8-8-8-8-6- 
A--9-6/8-6---6-4/6------------- 
D------------------------------ 
G------------------------------ 

BASE: 
cresça, independente do que aconteça... 
--------------------------------------------------------------- 
-----6-6-6-6-4---------6-6-6-6-4--------6-6-6-6-4-------------- 
-6--------------6-4---------------6-4--------------6-4-----2-4- 
---6----------------------------------4------------------4----- 

eu gosto muito de você... 
---------------------------- 
---------------------------- 
--6---6-6-5-4---4-4-4-4-4-4- 
----6---------4------------- 

chego... e sinto o gosto do teu beijo... 
------------------------------------------------------------------------------ 
-----6-6-6-6-4----------------6-6-6-6-4-------------------6-6-6-6-4----------- 
-6-------------6-4---2-4--6-------------6-4------2-4--6-------------6-4---2-4- 
---6---------------4--------6---------------4--4--------6---------------4----- 

de ficar... teu olhar, é forte como água do mar... 
-------------------------------------------------------------------------- 
-------------------------------------------------------------------------- 
--6---6-6-5-4---4-4-4-4-4-4--6---6-6-5-4---4-4-4-4-4-4--6---6-6-5--------- 
----6---------4----------------6---------4----------------6-------4-4-4-4- 

Refrão - quero ser feliz também (SÓ GUITARRA) 


Desejar para tudo que vem... 
------------------------------- 
------------------------------- 
----2-4-4---4-4-4---4---------- 
--4-------4-------4----4-4-0-4- 

-----------------    --------------------------------------------------------- 
------6/9-9------    -------4/6-6--------------------------------------------- 
--6-6-------6-6-- 3X -6-4-4-------4-4-----6----------------------------------- 
-----------------    --------------------------------------------------------- 

REPETIÇÃO DA LETRA(MESMA BASE DA PRIMEIRA VEZ) 

Refrão FINAL 
------------------------------------------------------ 
------------------------------------------------------ 
--4-4---4-4-4-4---4-4-6---------------------2-4-4---4- 
------4---------4-------4-4-0-4-4-4-4-0-4-4-------4--- 

_________________________ 
Marcelo Garcia - Salvador - BA 
[email protected] 
_________________________ 


    	
fixar
fixar inscrever-se

enviado porenviado por: marcelo_drums
cifra enviadaCorrigida por: sem correções
logo top cifrasComente
ico música do artistaMúsicas deste artista
ico curtiuCurtiu?
ico destaqueDestaque
Petaxxon Comunicação Online

Cifras.com.br - Melhor e mais completo site de cifras e tablaturas do Brasil Mais de 1 milhão de acordes de músicas cadastradas desde 2003
As informações contidas no nosso site são colaborações de seus usuários e podem conter erros, sendo assim, não nos responsabilizamos sobre nenhuma destas.

close
menos
mais
close
Cor dos acordes:

Cor da letra:

close
Alinhar acordes a direita Alinhar acordes a esquerda Alinhar acordes em baixo Alinhar acordes no topo
close
  Mostrar todos os acordes Esconder acordes muito fáceis Esconder acordes fáceis Esconder acordes intermediários
redimensionar
glossário