Cifras e Tablaturas
Oficina G3

Oficina G3

Solo Sempre Mais

Cifras Cancelar Versão de Impressão

Oficina G3 - Solo Sempre Mais

Tom:

  			G |----------------------16--14------|-----18-16-14-----------------------------| 
D |-0------------14--12--------------|--16----------16-14-12-14-16-14--12-14----| 
A |----12--14------------------------|---------------------------------------12-| 
E |----------------------------------|------------------------------------------| 

G |-----------------------15h-16-14--|----------12--14--16--14--16--18--19------| 
D |----14h-16-----15h-17-------------|--14-16-----------------------------------| 
A |-12---------12--------------------|------------------------------------------| 
E |----------------------------------|------------------------------------------| 

G |-16h-18-16--16-18-16-14-----16-14-|------------------------------------------| 
D |-------------------------16-------|--14-12-----12--14--16--17--16--14--------| 
A |----------------------------------|--------14--------------------------17----| 
E |----------------------------------|------------------------------------------| 

G |------14--14------------------21--|-------------11----------------14---------| 
D |--16----------16-14-12-14-19------|--14p--12----------16p--14----------------| 
A |----------------------------------|----------14---------------16-------------| 
E |----------------------------------|------------------------------------------| 

G |-------11-14-14-------------18-14-|------------------------------------------| 
D |----12----------14-12----12-------|-----14----12------14---------------------| 
A |-14-------------------14----------|------------------------------------------| 
E |----------------------------------|------------------------------------------| 

G |--14h-16-14------------------------------| 
D |-------------14p-12-----14-16-14-12--14--| 
A |--------------------14-------------------| 
E |--------------------------------------0--| 
    	
fixar
fixar inscrever-se

enviado porenviado por: felipejh
cifra enviadaCorrigida por: sem correções
logo top cifrasComente
ico música do artistaMúsicas deste artista
ico curtiuCurtiu?
ico destaqueDestaque
Petaxxon Comunicação Online

Cifras.com.br - Melhor e mais completo site de cifras e tablaturas do Brasil Mais de 1 milhão de acordes de músicas cadastradas desde 2003
As informações contidas no nosso site são colaborações de seus usuários e podem conter erros, sendo assim, não nos responsabilizamos sobre nenhuma destas.

close
menos
mais
close
Cor dos acordes:

Cor da letra:

close
Alinhar acordes a direita Alinhar acordes a esquerda Alinhar acordes em baixo Alinhar acordes no topo
close
  Mostrar todos os acordes Esconder acordes muito fáceis Esconder acordes fáceis Esconder acordes intermediários
redimensionar
glossário