Cifras e Tablaturas
Onze:20

Onze:20

Pra Você

Cifras Cancelar Versão de Impressão

Onze:20 - Pra Você

Tom: Eb

  			Introdução 

G|----------------------------------------------| 
D|-1-------------------1--3--------------1--3---| 
A|-----5---------3------------1-----2--3--------| 
E|----------3-----------------------------------| 

G|---------------------------------------------------------| 
D|-1------------1--3-------------3~-3h5--------------------| 
A|----5------3---------3~-3~-3h5-----------------1-3-1~/6--| 
E|-------3-------------------------------1~--1-3-----------| 

Refrão (Levada I) 
       
G|------------------------------------------------| 
D|---5-7-5-7-----5-7-5-7-----5-7-5-7----5-7-5-7---| 
A|-6---------6-6---------6-6--------6-6-----------| 
E|------------------------------------------------| 

G|----------------------------------------------------------------| 
D|---------------------5-8-5-8--5-8-5-8--5-8-5-8---6-6--6-6-------| 
A|--5-8-5-8--5-8-5-8~-7--------7--------6---------6-6--6-6--------| 
E|-6--------6------------------------------------4----4-----4/6---| 

G|------------------------------------------| 
D|------------------------------------------| 
A|--5-8-5-8----5-8-5-8----5-8-5-8--5-8-5-8~-| 
E|-6--------6-6--------6-6--------6---------| 

G|---------------------------------------------------| 
D|---5-7-5-7------5-7-5-7-----5-7-5-7-----5-7-5-7----| 
A|-6---------6--6---------6--6--------6--6-----------| 
E|---------------------------------------------------| 

G|-----------------------------------------------------------------------------------------| 
D|----------------------5-8-5-8---5-8-5-8---2-5-2-5---2-5-2-5---7-10-7-10---7-10-7-10------| 
A|--5-8-5-8--5-8-5-8~-7---------7---------3---------3----------8----------8-----------/8---| 
E|-6--------6------------------------------------------------------------------------------| 

Ponte (Levada II) 

G|---------------------------------------------------------| 
D|-----8----8------------7--7-----------5----5------3/5/8--| 
A|-6-6--8-6~--8-6~-0-5-5--7--7-5~-0-3-3--5-3--5-3~---------|  
E|---------------------------------------------------------| 

G|-------------------------------------------------| 
D|-----8----8------------7--7-----------5----5-----| 
A|-6-6--8-6~--8-6~-0-5-5--7--7-5~-0-3-3--5-3--5-3~-|  
E|-------------------------------------------------| 

Ponte (Pré - Refrão) 

G|-----------------------------------------------| 
D|-----------------------------------------------| 
A|--------------------3~-3h5-----------1-3-1~/6--| 
E|-3-3-3~--0-3-3-3~-3h5-------1~-0-1-3-----------| 

Refrão Final 

G|--------------------------------| 
D|--------------------------------| 
A|---------------------1~-0-1-0-1-| 3x 
E|-3-3-3-3~--4-4-4-4~-------------| 

G|---------------------------------------| 
D|---------------------------------------| 
A|---------------------1~-0-1-0-1~--6~---| 
E|-3-3-3-3~--4-4-4-4~--------------------| 
    	
fixar
fixar inscrever-se

enviado porenviado por: LealzinhoW
cifra enviadaCorrigida por: sem correções
logo top cifrasComente
ico música do artistaMúsicas deste artista
ico curtiuCurtiu?
ico destaqueDestaque
Petaxxon Comunicação Online

Cifras.com.br - Melhor e mais completo site de cifras e tablaturas do Brasil Mais de 1 milhão de acordes de músicas cadastradas desde 2003
As informações contidas no nosso site são colaborações de seus usuários e podem conter erros, sendo assim, não nos responsabilizamos sobre nenhuma destas.

close
menos
mais
close
Cor dos acordes:

Cor da letra:

close
Alinhar acordes a direita Alinhar acordes a esquerda Alinhar acordes em baixo Alinhar acordes no topo
close
  Mostrar todos os acordes Esconder acordes muito fáceis Esconder acordes fáceis Esconder acordes intermediários
redimensionar
glossário