Cifras e Tablaturas
Onze:20

Onze:20

Sem Medo De Amar

Cifras Cancelar Versão de Impressão

Onze:20 - Sem Medo De Amar

Tom: Eb

  			Introdução 

G|------------------------| 
D|------------------------| 
A|-------4~--2~-----------| 
E|--2~--------------------| 

G|---------------------------------------------------| 
D|--------------------3---3-4-6~-----3---------3-4-6-| 
A|------1---1-2-4---4---4----------4---4-4-4-4-------| 
E|--2-2---2------------------------------------------| 

"...e o meu coração só tem lugar, pra você..." 

G|---------------------------------------------| 
D|----1-4-------------3--6----------1-----1--4-| 
A|--2---------1--4---------4-----2------2------| 
E|-------2~-------------------4----------------| 


G|-------------------------------------------| 
D|-------------------------------------------| 
A|--2-4-2-4-2--6-8-9--66-9--1-3-4--11-4------| 
E|-------------------------------------------| 

G|-------------------------------| 
D|---------------1-----------4---| 
A|-1-0---------2-----1-1-1-0---2-| 
E|-----4-4-6-4-------------------| 

Ponte(Refrão) 

G|------------------------| 
D|------------------------| 
A|-2-1------5-5-5~--------| 
E|-----4--2---------------| 

Refrão 

G|--------------------------------------------| 
D|---------------3---3-6~~------1-------------| 
A|-----1----4--4---4---------2----2-2-2-2-1---| 
E|-2-2---2----------------------------------4-| 

Final 

G|---------------------| 
D|---1--4--------------| 
A|-2-------------------| 
E|----------2----------| 

Obs. por se tratar de uma tablatura, escutem a musica primeiro e depois tente acompanhar, Abraço Time! 
    	
fixar
fixar inscrever-se

enviado porenviado por: LealzinhoW
cifra enviadaCorrigida por: sem correções
logo top cifrasComente
ico música do artistaMúsicas deste artista
ico curtiuCurtiu?
ico destaqueDestaque
Petaxxon Comunicação Online

Cifras.com.br - Melhor e mais completo site de cifras e tablaturas do Brasil Mais de 1 milhão de acordes de músicas cadastradas desde 2003
As informações contidas no nosso site são colaborações de seus usuários e podem conter erros, sendo assim, não nos responsabilizamos sobre nenhuma destas.

close
menos
mais
close
Cor dos acordes:

Cor da letra:

close
Alinhar acordes a direita Alinhar acordes a esquerda Alinhar acordes em baixo Alinhar acordes no topo
close
  Mostrar todos os acordes Esconder acordes muito fáceis Esconder acordes fáceis Esconder acordes intermediários
redimensionar
glossário