Cifras e Tablaturas
Os Incríveis

Os Incríveis

O Milionário

Ano: 1993
Album : Maiores Sucessos

Cifras Cancelar Versão de Impressão

Os Incríveis - O Milionário

Tom:

  			O MILIONÁRIO 
 
G|--------------------------------------------------------------------| 
D|--------------------------------------------------------------------| 
A|--------------------------------------------------------------------| 
E|---------------------------------------------------------------------| 
 
 
G|----------------------------------------------------------------------------------------------------------| 
D|-5-5---3-4-5-5---5-6-7-7---5-6-7-7-4----------------------- 3-4-5------------------------| 
A|------5----------  5----------- 7-------------  7-5-5---3-4-5-5-5--------5-5-5-5------------| 
E|-----------------------------------------------------------5----------------------------------------------| 
 
G|----------------------------------------------------------------------------------------------------------| 
D|-5-5---3-4-5-5---5-6-7-7---5-6-7-7-4----------------------- 3-4-5------------------------| 
A|------5----------  5----------- 7-------------  7-5-5---3-4-5-5-5--------5-5-5-5------------| 
E|-----------------------------------------------------------5----------------------------------------------| 
 
G|----------------------------------------------------------------------------------------------------------| 
D|-5-5---3-4-5-5---5-6-7-7---5-6-7-7-4----------------------- 3-4-5------------------------| 
A|------5----------  5----------- 7-------------  7-5-5---3-4-5-5-5--------5-5-5-5------------| 
E|-----------------------------------------------------------5----------------------------------------------| 
 
G|----------------------------------------------------------------------------------------------------------| 
D|-6-6-6-6-6-6-6-8-6-5-5-------------------------------------------------------------------------| 
A|----------------------------------5----------------------------------------------------------------------| 
E|----------------------------------------------------------------------------------------------------------| 
 
G|---------------------------------------------------------------------------------------------------------| 
D|-6-6-6-6-6-6-6-8-6-5-5-------------------------------------------------------------------------| 
A|----------------------------------5----------------------------------------------------------------------| 
E|----------------------------------------------------------------------------------------------------------| 
 
G|----------------------------------------------------------------------------------------------------------| 
D|-5-5---3-4-5-5---5-6-7-7---5-6-7-7-4----------------------- 3-4-5------------------------| 
A|------5----------  5----------- 7-------------  7-5-5---3-4-5-5-5--------5-5-5-5------------| 
E|-----------------------------------------------------------5----------------------------------------------| 
 
G|----------------------------------------------------------------------------------------------------------| 
D|-5-5---3-4-5-5---5-6-7-7---5-6-7-7-4----------------------- 3-4-5------------------------| 
A|------5----------  5----------- 7-------------  7-5-5---3-4-5-5-5--------5-5-5-5------------| 
E|-----------------------------------------------------------5----------------------------------------------| 
 
G|----------------------------------------------------------------------------------------------------------| 
D|-5-5---3-4-5-5---5-6-7-7---5-6-7-7-4----------------------- 3-4-5------------------------| 
A|------5----------  5----------- 7-------------  7-5-5---3-4-5-5-5--------5-5-5-5------------| 
E|-----------------------------------------------------------5----------------------------------------------| 
 
G|----------------------------------------------------------------------------------------------------------| 
D|-6-6-6-6-6-6-6-8-6-5-5-------------------------------------------------------------------------| 
A|----------------------------------5----------------------------------------------------------------------| 
E|----------------------------------------------------------------------------------------------------------| 
 
G|----------------------------------------------------------------------------------------------------------| 
D|-6-6-6-6-6-6-6-8-6-5-5-------------------------------------------------------------------------| 
A|----------------------------------5----------------------------------------------------------------------| 
E|----------------------------------------------------------------------------------------------------------| 
 
G|----------------------------------------------------------------------------------------------------------| 
D|-5----3-4-5-5----5-6-7-7----7-5-5-4-3-2----------------------------------------------------| 
A|--- 5-------------5------------7-----------------------------------------------------------------------| 
E|----------------------------------------------------------------------------------------------------------| 
 
G|----------------------------------------------------------------------------------------------------------| 
D|-5----3-4-5-5----5-6-7-7----7-5-5-4-3-2----------------------------------------------------| 
A|----5-------------5-------------7----------------------------------------------------------------------| 
E|----------------------------------------------------------------------------------------------------------| 
 
G|----------------------------------------------------------------------------------------------------------| 
D|-5----3-4-5-5----5-6-7-7----7-5-5-4-3-4-5-------------------------------------------------| 
A|----5-------------5-------------7----------------------------------------------------------------------| 
E|----------------------------------------------------------------------------------------------------------| 
 

    	
fixar
fixar inscrever-se

enviado porenviado por: carlos_rpm
cifra enviadaCorrigida por: sem correções
logo top cifrasComente
ico música do artistaMúsicas deste artista
ico curtiuCurtiu?
ico destaqueDestaque
Petaxxon Comunicação Online

Cifras.com.br - Melhor e mais completo site de cifras e tablaturas do Brasil Mais de 1 milhão de acordes de músicas cadastradas desde 2003
As informações contidas no nosso site são colaborações de seus usuários e podem conter erros, sendo assim, não nos responsabilizamos sobre nenhuma destas.

close
menos
mais
close
Cor dos acordes:

Cor da letra:

close
Alinhar acordes a direita Alinhar acordes a esquerda Alinhar acordes em baixo Alinhar acordes no topo
close
  Mostrar todos os acordes Esconder acordes muito fáceis Esconder acordes fáceis Esconder acordes intermediários
redimensionar
glossário