Cifras e Tablaturas
Paralamas do Sucesso

Paralamas do Sucesso

Meu Erro Tablatura de Baixo Verificada

Ano: 1999
Album : Arquivo
Compositor : (Herbert Vianna)

Cifras Cancelar Versão de Impressão
cifras

Paralamas do Sucesso - Meu Erro

fixar na tela  
Exibindo: vídeo-aula ver clipes redimensionar

Tom:

A

  Intro:  

G|--------------2/4\2---------------|  
D|-----------2---------0--0-0-------|  
A|--0--2--4--------------------4--2-|  
E|----------------------------------|  

G|--------------2/4\2----------2---|  
D|-----------2---------0--2/4----4-|  
A|--0--2--4------------------------|  
E|---------------------------------|  

G|--------------2/4\2---------------|  
D|-----------2---------0--0-0-------|  
A|--0--2--4--------------------4--2-|  
E|----------------------------------|  

G|--------------2/4\2----------|  
D|-----------2---------0-----0-|  
A|--0--2--4---------------0----|  
E|-----------------------------|  

Verso 1:  

G|------------------------------------------------------|  
D|------------------------------------------------------|  
A|-0-0-0--0-0-0-2-3-4-4-4--4-4--4-4--0--5-5-5--5-5--5-5-|  
E|------------------------------------------------------|  

G|---------------------------------------------------------------|  
D|---------------------------------------------------------------|  
A|--0--5-5-5--5-5--5-4-2-0-0-0--0-0-0-2-3-4-4-4--4-4-4-4-0-5-5-5-|  
E|---------------------------------------------------------------|  

G|--------------------------------|  
D|--------------------------------|  
A|--5-5-5-5-0-5-5-5--5-5-5-5------|  
E|--------------------------------|  

Refrão  

G|-----------------------------------------------------------------|  
D|---------------2-3-4---------------------------------------------|  
A|--4-4-4--4-4-4-------4------0-4-5-5-5--5-5-5-5-0-5-5-5--5-5-5/7\-|  
E|-----------------------5-2---------------------------------------|  

G|--------------2/4\2----------------------------2/4\2------------|  
D|-----------2---------0--0-0-----------------2---------0-----0---|  
A|--0--2--4--------------------4--2--0--2--4---------------0------|  
E|----------------------------------------------------------------|  

Verso 2:  

G|--------------------------------------------------------------|  
D|--------------------------------------------------------------|  
A|-0-0-0--0-0-0-2-3-4-4-4--4-4--4-4--0--5-5-5--5-5--5-5-0-5-5-5-|  
E|--------------------------------------------------------------|  

G|----------9-------------------------------------------------------|  
D|------------------------------------------------------------------|  
A|--5-5-5-7---0-0-0--0-0-0-2-3-4-4-4--4-4--4-4--0--5-5-5--5-5-5-5-0-|  
E|------------------------------------------------------------------|  

G|-------------------|  
D|-------------------|  
A|--5-5-5--5-5-5-7/--|  
E|-------------------|  

Parte Final:  

G|--------------2/4\2---------------|  
D|-----------2---------0--0-0-------|  
A|--0--2--4--------------------4--2-|  
E|----------------------------------|  

G|--------------2/4\2----------2---|  
D|-----------2---------0--2/4----4-|  
A|--0--2--4------------------------|  
E|---------------------------------|  

G|--------------2/4\2---------------|  
D|-----------2---------0--0-0-------|  
A|--0--2--4--------------------4--2-|  
E|----------------------------------|  

G|--------------2/4\2-------2-------|  
D|-----------2---------0--4---4-2---|  
A|--0--2--4-----------------------4-|  
E|----------------------------------|  

G|--------------2/4\2---------------|  
D|-----------2---------0--0-0-------|  
A|--0--2--4--------------------4--2-|  
E|----------------------------------|  

G|--------------2/4\2-----4-2---------|  
D|-----------2---------0------4-2-----|  
A|--0--2--4-----------------------4-0-|  
E|------------------------------------|  

  

top 5 | paralamas do sucesso
top rock'n roll
Outras músicas do artista letras do(a) Paralamas do Sucesso
Top cifras »Top artistas »
Petaxxon Comunicação Online
Cifras.com.br - Melhor e mais completo site de cifras e tablaturas do Brasil
Mais de 1 milhão de acordes de músicas cadastradas desde 2003
As informações contidas no nosso site são colaborações de seus usuários e podem conter erros, sendo assim, não nos responsabilizamos sobre nenhuma destas.
close
menos
mais
close
Cor dos acordes:

Cor da letra:

 

save
close
close
 
redimensionar