Cifras e Tablaturas
Planet Hemp

Planet Hemp

Mantenha O Respeito

Cifras Cancelar Versão de Impressão

Planet Hemp - Mantenha O Respeito

Tom:

  			Normalmente é assim.. 
 
e |------------------------------------------------------------------------------------------------------ 
B |------------------------------------------------------------------------------------------------------ 
G |------------------------------------------------------------------------------------------------------ 
D |--------------------------------------0-0--2-0----------------------------------------------------- 
A |-------------4-4-4-0---2-2-2-0------------------------------------------------------------------ 
E |--2-2-2-0------------------------------------------------------------------------------------------ 
 
REFRÃO 
e |------------------------------------------------------------------------------------------------------ 
B |------------------------------------------------------------------------------------------------------ 
G |------------------------------------------------------------------------------------------------------ 
D |----------------------------------------------------------------------------------------------------- 
A |--------------4-4-4-3-2---2-0-2-0-2----------------------------------------------------------- 
E |--2-2-2-0------------------------------------------------------------------------------------------ 
 
Esqueça, todas as outras versões.. 
Essa é a correta 
    	
fixar
fixar inscrever-se

enviado porenviado por: LeonardoD2
cifra enviadaCorrigida por: sem correções
logo top cifrasComente
ico música do artistaMúsicas deste artista
ico curtiuCurtiu?
ico destaqueDestaque
Petaxxon Comunicação Online

Cifras.com.br - Melhor e mais completo site de cifras e tablaturas do Brasil Mais de 1 milhão de acordes de músicas cadastradas desde 2003
As informações contidas no nosso site são colaborações de seus usuários e podem conter erros, sendo assim, não nos responsabilizamos sobre nenhuma destas.

close
menos
mais
close
Cor dos acordes:

Cor da letra:

close
Alinhar acordes a direita Alinhar acordes a esquerda Alinhar acordes em baixo Alinhar acordes no topo
close
  Mostrar todos os acordes Esconder acordes muito fáceis Esconder acordes fáceis Esconder acordes intermediários
redimensionar
glossário