Cifras e Tablaturas
Red Hot Chili Peppers

Red Hot Chili Peppers

Look Around

Cifras Cancelar Versão de Impressão
cifras

Red Hot Chili Peppers - Look Around

fixar na tela  
Exibindo: vídeo-aula ver clipes redimensionar

Tom:

  Intro 

G|----------------------------------------------------------------| 
D|----5-5--5-3--------0-1-1--1-0----------------------------------| 
A|-------------5-5--3------------3--3-3-1-1-----------------------| 
E|-3--------------------------------------------------------------| 




G|----------------------------------------------------------------| 
D|----5-5--5-3--------0-1-1--1-0---1-3---1------------------------| 
A|-------------5-5--3------------3-----3---3-1--------------------| 
E|-3--------------------------------------------------------------| 




G|----------------------------------------------------------------| 
D|----5-5--5-3--------0-1-1--1-0----------------------------------| 
A|-------------5-5--3------------3-3--1-1-------------------------| 
E|-3--------------------------------------------------------------| 




G|----------------------------------------------------------------| 
D|----5-5--5-3--------0-1-1--1-0----------------------------------| 
A|-------------5-5--3--------------3/15\--------------------------| 
E|-3--------------------------------------------------------------| 


Verso 1 


G|----------------------------------------------------------------| 
D|----------------------------------------------------------------| 
A|-10-10--10-10-10--8-8--8-8-8--6-6--6-6-6------------------------| 
E|------------------------------------------8-8--8--10-10--10-----| 




G|-----------------------------------10---------------------------| 
D|-----------10h12-10-8--------10h12----12\10-8-------------------| 
A|-10-10--10------------8-8--8-------------------6-6--6-----------| 
E|----------------------------------------------------------------| 

  


G|----------------------------------------------------------------| 
D|----------------------------------------------------------------| 
A|-8h10-8----8h10-8-----------------------------------------------| 
E|--------11--------11--8-8--8--10-10-10--------------------------| 




G|----------------------------------------------------------------| 
D|----------------------------------------------------------------| 
A|-10-10-10-10-10-10-10-10---8-8-8-8-8-8-8-8---6-6-6-6-6-6-6-6----| 
E|----------------------------------------------------------------| 


G|----------------------------------------------------------------| 
D|----------------------------------------------------------------| 
A|------------------------10-10-10-10-10-10-10-10--8-8-8-8-8-8-8-8| 
E|-8-8-8-8--10-10-10-10-------------------------------------------| 






G|----------------------------------------------------------------| 
D|----------------------------------------------------------------| 
A|-6-6-6-6-6-6-6-6--6-8-6-----------------------------------------| 
E|------------------------8-8-8--8-9-10-10-10---------------------| 


Refrão 1 


G|----------------------------------------------------------------| 
D|----5-5--5-3--------0-1-1--1-0----------------------------------| 
A|-------------5-5--3------------3-3---1-3-1----------------------| 
E|-3-----------------------------------------1--------------------| 




G|----------------------------------------------------------------| 
D|-----5-5--5-3--------0-1-1--1-0---------------------------------| 
A|--------------5-5--3------------3-------------------------------| 
E|--3-------------------------------0-1-2-------------------------| 




G|----------------------------------------------------------------| 
D|-----5-5--5-3--------0-1-1--1-0-----3---------------------------| 
A|--------------5-5--3------------3-5----5-3-1--------------------| 
E|--3-------------------------------------------------------------| 




G|----------------------------------------------------------------| 
D|----5-5--5-3--------0-1-1--1-0----------------------------------| 
A|-------------5-5--3------------3-3/15\--------------------------| 
E|-3--------------------------------------------------------------| 



Solo guitarra 


G|----------------------------------------------------------------| 
D|--------------8---------10h12-10-8------------------------------| 
A|-10-10-10--10---10-8-8-------------10-8--6-6--6-----------------| 
E|----------------------------------------------------------------| 




G|----------------------------------------------------------------| 
D|----------------------------------------------------------------| 
A|--8h10-8-----8h10-8----------8----------------------------------| 
E|---------11---------11--8-8-----8-9-10-10-----------------------| 


Verso 2 


G|----------------------------------------------------------------| 
D|-------------8-------------10-----------------------------------| 
A|-10-10-10-10---10--8-8-8-8----8-6-6-6-6-6h8-6--------------6h8-6| 
E|----------------------------------------------8-8--8-10-10------| 




G|----------------------------------------------------------------| 
D|----------------------------------------------------------------| 
A|-10-10-10-10-10-10-10-10--8-8-8-8-8-8-8-8--6-6-6-6-6-6-6-6------| 
E|----------------------------------------------------------------| 





G|----------------------------------------------------------------| 
D|-------------------8-8------------------10h11-8-10-8------------| 
A|-8-8-8-8-8-9-10-10----10---10-10-10-10---------------10---------| 
E|----------------------------------------------------------------| 





G|----------------------------------------------------------------| 
D|----------10h12-10-8--------------------------------------------| 
A|-8-8-8-8-------------10-8--6-6-6-6-6-6-6-6----------------------| 
E|--------------------------------------------8-8-8-8--10-10-10-10| 



Refrão 2 



G|----------------------------------------------------------------| 
D|----5-5--5-3--------0-1-1--1-0----------------------------------| 
A|-------------5-5--3------------3-0-1-1-3-1----------------------| 
E|-3--------------------------------------------------------------| 






G|----------------------------------------------------------------| 
D|----5-5--5-3--------0-1-1--1-0----------------------------------| 
A|-------------5-5--3------------3-3-3-3--------------------------| 
E|-3--------------------------------------------------------------| 






G|----------------------------------------------------------------| 
D|----5-5--5-3--------0-1-1--1-0-----3----------------------------| 
A|-------------5-5--3------------3-5----5-3-1---------------------| 
E|-3--------------------------------------------------------------| 






G|----------------------------------------------------------------| 
D|-----5-5--5-3--------0-1-1--1-0---------------------------------| 
A|--------------5-5--3------------3-3--1-1------------------------| 
E|--3-------------------------------------------------------------| 



Especial 



G|------------------------7/9------5/7----------------------------| 
D|-----7---5---7--------7--------5------5-7-----------------------| 
A|---7---7---7----7-6-5--------3----------------------------------| 
E|-5--------------------------------------------------------------| 




G|------------------------7/9------5/7----------------------------| 
D|-----7---5---7--------7--------5------5-7-----------------------| 
A|---7---7---7----7-6-5--------3----------------------------------| 
E|-5--------------------------------------------------------------| 




G|------------------------7/9------5/7/12\------------------------| 
D|-----7---5---7--------7--------5--------------------------------| 
A|---7---7---7----7-6-5--------3----------------------------------| 
E|-5--------------------------------------------------------------| 




G|------------------------7/9------5/7----------------------------| 
D|-----7---5---7--------7--------5------5-7-----------------------| 
A|---7---7---7----7-6-5--------3----------------------------------| 
E|-5--------------------------------------------------------------| 




G|------------------------7/9------5/7----------------------------| 
D|-----7---5---7--------7--------5--------------------------------| 
A|---7---7---7----7-6-5--------3--------5-7-----------------------| 
E|-5--------------------------------------------------------------| 




G|------------------------7/9------5/7/12-------------------------| 
D|-----7---5---7--------7--------5--------------------------------| 
A|---7---7---7----7-6-5--------3----------------------------------| 
E|-5--------------------------------------------------------------| 




G|----------------------------------------------------------------| 
D|----------------------------------------------------------------| 
A|-10-10-10-10-10-10-10-10-10--8-8-8-8-8-8-8-8-8-6-6-6-6-6-6-6-6-6| 
E|----------------------------------------------------------------| 




G|----------------------------------------------------------------| 
D|----------------------------------------------------------------| 
A|----------------------------------------------------------------| 
E|-8-8-8-8----10-10-10-10-----------------------------------------| 



Refrão 3 



G|----------------------------------------------------------------| 
D|-----5-5--5-3--------0-1-1--1-0---------------------------------| 
A|--------------5-5--3------------3-3---3-5-3---------------------| 
E|--3-----------------------------------------6-------------------| 




G|----------------------------------------------------------------| 
D|-----5-5--5-3--------0-1-1--1-0---------------------------------| 
A|--------------5-5--3------------3-------------------------------| 
E|--3--------------------------------0-1-2------------------------| 




G|--------------------------------------3-2-----------------------| 
D|-----5-5--5-3--------0-1-1--1-0-----------3---------------------| 
A|--------------5-5--3------------3---3-------5-------------------| 
E|--3-------------------------------------------------------------| 




G|-----------------------------10---------------------------------| 
D|----5-5--5-3---------8-10/12----12-10-8-10----------------------| 
A|-------------5-5--10--------------------------------------------| 
E|-3--------------------------------------------------------------| 



G|----------------------------------------------------------------| 
D|----------------------------------------------------------------| 
A|-8h10-10-10-----------------------------------------------------| 
E|-------------8h10-10-10--3--------------------------------------| 



Final 



G|----------------------------------------------------------------| 
D|----5-5--5-3--------0-1-1--1-0----------------------------------| 
A|-------------5-5--3------------3-3-1--3-1-----------------------| 
E|-3--------------------------------------------------------------| 





G|----------------------------------------------------------------| 
D|----5-5--5-3--------0-1--1-1-0--0-0--------------5--------------| 
A|-------------5-5--3-----------------3--3-3--1--0----------------| 
E|-3--------------------------------------------------------------| 





G|----------------------------------------------------------------| 
D|-----5-5--5-3--------0-1-1--1-0--------3-5----------------------| 
A|--------------5-5--3------------3-5-----------------------------| 
E|--3-------------------------------------------------------------| 





G|----------------------------3-2---------------------------------| 
D|-----5-5--5-3--------0-1--------5-3-------------10h12-10-8------| 
A|--------------5-5--3---------------------------------------10/--| 
E|--3-----------------------------------3/15~---------------------| 
  

top 5 | red hot chili peppers
top rock alternativo
Outras músicas do artista letras do(a) Red Hot Chili Peppers
Top cifras »Top artistas »
Petaxxon Comunicação Online
Cifras.com.br - Melhor e mais completo site de cifras e tablaturas do Brasil
Mais de 1 milhão de acordes de músicas cadastradas desde 2003
As informações contidas no nosso site são colaborações de seus usuários e podem conter erros, sendo assim, não nos responsabilizamos sobre nenhuma destas.
close
menos
mais
close
Cor dos acordes:

Cor da letra:

 

save
close
close
 
redimensionar