Cifras e Tablaturas
Red Hot Chili Peppers

Red Hot Chili Peppers

Suck My Kiss Tablatura de Baixo Verificada

Ano: 1991
Album : Blood Sugar Sex Magik
Compositor : (Anthony Kiedis / John Frusciante / Flea / Chad Smith)

Cifras Cancelar Versão de Impressão
cifras

Red Hot Chili Peppers - Suck My Kiss

fixar na tela  
Exibindo: vídeo-aula ver clipes redimensionar

Tom:

  
Intro: 

G|-------------------------------------------------------------7h9-9-| 
D|---------------------------------------------3-3-3-3-5h7-7-7-------| 
A|-----1-----------1-----------1-------3h5-5-5-----------------------| 
E|-1-3---1-3---1-3---1-3---1-3---1-3---------------------------------| 

Verse: 

G|--------------------------------------------------------------------| 
D|--------------------------------------------------------------------| 
A|-----------------------------1h3-------------------------------1h3--| 
E|-1-3--3-1--3-3--1-3--3-1-3-3-----1-1-3--3-1--3-3--1-3--3-1-3-3----1-| 

G|----------------------| 
D|----3-----------------| 
A|---------8---9/12-12\-| 
E|-1---------8----------| 

Bridge: 

G|-----------------------| 
D|-----------------------| 
A|---------------------1-| 
E|-1-3--3-1--3-3--1-3----| 

Chorus 1: 

G|----------------------------------------------------------| 
D|------5---5------------------5---5----------------5---5---| 
A|--------5---5------------------5---5----------------5---5-| 
E|-0-0-----------0--5-5---0-0-----------0--5-5--0-0---------| 

G|------------------| 
D|------------------| 
A|------------------| 
E|--0--5-5---0-0-0--| 

Chorus 2: 

G|----------------------------------------------------------| 
D|------5---5------------------5---5----------------5---5---| 
A|--------5---5------------------5---5----------------5---5-| 
E|-0-0-----------0--5-5---0-0-----------0--5-5--0-0---------| 

G|------------------| 
D|------------------| 
A|------------------| 
E|--0--5-5---0-0----| 

Chorus 1: 

G|----------------------------------------------------------| 
D|------5---5------------------5---5----------------5---5---| 
A|--------5---5------------------5---5----------------5---5-| 
E|-0-0-----------0--5-5---0-0-----------0--5-5--0-0---------| 

G|------------------| 
D|------------------| 
A|------------------| 
E|--0--5-5---0------| 

Solo: 

G|-------------------------------------------------------------7h9-9-| 
D|---------------------------------------------3-3-3-3-5h7-7-7-------| 
A|-----1-----------1-----------1-------3h5-5-5-----------------------| 
E|-1-3---1-3---1-3---1-3---1-3---1-3---------------------------------| 


  

top 5 | red hot chili peppers
top rock alternativo
Outras músicas do artista letras do(a) Red Hot Chili Peppers
Top cifras »Top artistas »
Petaxxon Comunicação Online
Cifras.com.br - Melhor e mais completo site de cifras e tablaturas do Brasil
Mais de 1 milhão de acordes de músicas cadastradas desde 2003
As informações contidas no nosso site são colaborações de seus usuários e podem conter erros, sendo assim, não nos responsabilizamos sobre nenhuma destas.
close
menos
mais
close
Cor dos acordes:

Cor da letra:

 

save
close
close
 
redimensionar