Cifras e Tablaturas
Saint Motel

Saint Motel

Ace In The Hole

Cifras Cancelar Versão de Impressão Print

Saint Motel - Ace In The Hole

Tom: Am

  			
Intro and Verse 
G|---------------------------------------------------7------------------| 
D|---------------------------------------------7/9---------------7/9----| 
A|-10-10-8---7-7-7-7-----------------11------7---------10-10-8-7--------|x2 
E|-------------------5--8-11-8-8-8-8----8-10-------0-----------------10-| 

Chorus 
G|-------------------------------------------------------------------9-9-9-9-| 
D|-------------5-7-------------5-7-------------10-9--------------9-9---------| 
A|--------------------------------------------------7-7-7-7-7-7--------------| 
E|-5-5-5-5-5-5-----5-5-5-5-5-5-----8-8-8-8-8-8-------------------------------| 

Verse 
G|---------------------------------------------------7------------------| 
D|---------------------------------------------7/9---------------7/9----| 
A|-10-10-8---7-7-7-7-----------------11------7---------10-10-8-7--------|x2 
E|-------------------5--8-11-8-8-8-8----8-10-------0-----------------10-| 

Chorus 
G|-------------------------------------------------------------------9-9-9-9-| 
D|-------------5-7-------------5-7-------------10-9--------------9-9---------| 
A|--------------------------------------------------7-7-7-7-7-7--------------| 
E|-5-5-5-5-5-5-----5-5-5-5-5-5-----8-8-8-8-8-8-------------------------------| 


************************************ 

| /  slide up 

************************************ 
    	

enviado porenviado por: joaoewerton
cifra enviadaCorrigida por: sem correções
logo top cifrasComente
ico música do artistaMúsicas deste artista
ico curtiuCurtiu?
ico destaqueDestaque
Petaxxon Comunicação Online

Cifras.com.br - Melhor e mais completo site de cifras e tablaturas do Brasil Mais de 1 milhão de acordes de músicas cadastradas desde 2003
As informações contidas no nosso site são colaborações de seus usuários e podem conter erros, sendo assim, não nos responsabilizamos sobre nenhuma destas.

close
menos
mais
close
Cor dos acordes:

Cor da letra:

close
Alinhar acordes a direita Alinhar acordes a esquerda Alinhar acordes em baixo Alinhar acordes no topo
close
  Mostrar todos os acordes Esconder acordes muito fáceis Esconder acordes fáceis Esconder acordes intermediários
redimensionar
glossário