Cifras e Tablaturas
Spearhead

Spearhead

People In Tha Middle

Cifras Cancelar Versão de Impressão Print

Spearhead - People In Tha Middle

Tom:

  • 0:00 / 0:00
  			Intro 0:12 
G|----------------|----------------|----------------|----------------| 
D|----------------|----------------|----------------|----------------| 
A|----------------|----------------|----------------|----------------| 
E|----------------|----------------|----------------|----------------| 

G|----------------|----------------|----------------|----------------| 
D|----------------|----------------|----------------|----------------| 
A|----------------|----------------|----------------|---------15--\--| 
E|----------------|----------------|----------------|----------------| 

Pre-Verse 0:23 
G|----------------|----------------|----------------|----------------| 
D|--------5---3---|----------------|----5---3-------|3-3-5-----------| 
A|3---6-----------|----------------|3-----------6---|--------6---\---| 
E|----------------|----------------|----------------|----------------| 

G|----------------|----------------|----------------|----------------| 
D|--------5---3---|----------------|----5---3-------|8-8-7---5-------| 
A|3---6-----------|----------------|3-----------6---|------------8---| 
E|----------------|----------------|----------------|----------------| 

G|----------------|----------------|----------------|----------------| 
D|--------5---3---|----------------|----5---3-------|3-3-5-----------| 
A|3---6-----------|----------------|3-----------6---|--------6---\---| 
E|----------------|----------------|----------------|----------------| 

G|----------------|----------------|----------------|----------------| 
D|--------5---3---|----------------|----------------|----------------| 
A|3---6-----------|----------------|3---------------|----------------| 
E|----------------|----------------|----------------|----------------| 

verse 1 0:46 
G|----------------|----------------|----------------|----------------| 
D|--------5---3---|----------------|----5---3-------|3-3-5-----------| 
A|3---6-----------|----------------|3-----------6---|--------6---\---| 
E|----------------|----------------|----------------|----------------| 

G|----------------|----------------|----------------|----------------| 
D|--------5---3---|----------------|----5---3-------|8-8-7---5-------| 
A|3---6-----------|----------------|3-----------6---|------------8---| 
E|----------------|----------------|----------------|----------------| 

G|----------------|----------------|----------------|----------------| 
D|--------5---3---|----------------|----5---3-------|3-3-5-----------| 
A|3---6-----------|----------------|3-----------6---|--------6---\---| 
E|----------------|----------------|----------------|----------------| 

G|----------------|----------------|----------------|----------------| 
D|--------5---3---|----------------|----------------|----------------| 
A|3---6-----------|----------------|3---------------|----------------| 
E|----------------|----------------|----------------|----------------| 


Chorus 1:08 
G|----------------|----------------|----------------|----------------| 
D|--------5---3---|----------------|----------------|----------------| 
A|3---6-----------|----------------|3---------------|----------------| 
E|----------------|----------------|----------------|----------------|  x4 

Pre-verse 1:30 
G|----------------|----------------|----------------|----------------| 
D|--------5---3---|----------------|----5---3-------|3-3-5-----------| 
A|3---6-----------|----------------|3-----------6---|--------6---\---| 
E|----------------|----------------|----------------|----------------| 

G|----------------|----------------|----------------|----------------| 
D|--------5---3---|----------------|----5---3-------|8-8-7---5-------| 
A|3---6-----------|----------------|3-----------6---|------------8---| 
E|----------------|----------------|----------------|----------------| 

verse 1:42 
G|----------------|----------------|----------------|----------------| 
D|--------5---3---|----------------|----5---3-------|3-3-5-----------| 
A|3---6-----------|----------------|3-----------6---|--------6---\---| 
E|----------------|----------------|----------------|----------------| 

G|----------------|----------------|----------------|----------------| 
D|--------5---3---|----------------|----------------|----------------| 
A|3---6-----------|----------------|3---------------|----------------| 
E|----------------|----------------|----------------|----------------| 

G|----------------|----------------|----------------|----------------| 
D|--------5---3---|----------------|----5---3-------|3-3-5-----------| 
A|3---6-----------|----------------|3-----------6---|--------6---\---| 
E|----------------|----------------|----------------|----------------| 

G|----------------|----------------|----------------|----------------| 
D|--------5---3---|----------------|----5---3-------|8-8-7---5-------| 
A|3---6-----------|----------------|3-----------6---|------------8---| 
E|----------------|----------------|----------------|----------------| 

G|----------------|----------------|----------------|----------------| 
D|--------5---3---|----------------|----------------|----------------| 
A|3---6-----------|----------------|3---------------|----------------| 
E|----------------|----------------|----------------|----------------| 

Chorus 2:10 
G|----------------|----------------|----------------|----------------| 
D|--------5---3---|----------------|----------------|----------------| 
A|3---6-----------|----------------|3---------------|----------------| 
E|----------------|----------------|----------------|----------------|  x4 

Pre-verse 2:32 
G|----------------|----------------|----------------|----------------| 
D|--------5---3---|----------------|----5---3-------|8-8-7---5-------| 
A|3---6-----------|----------------|3-----------6---|------------8---| 
E|----------------|----------------|----------------|----------------| 

G|----------------|----------------|----------------|----------------| 
D|--------5---3---|----------------|----5---3-------|3-3-5-----------| 
A|3---6-----------|----------------|3-----------6---|--------6---\---| 
E|----------------|----------------|----------------|----------------| 

G|----------------|----------------|----------------|----------------| 
D|--------5---3---|----------------|----5---3-------|8-8-7---5-------| 
A|3---6-----------|----------------|3-----------6---|------------8---| 
E|----------------|----------------|----------------|----------------| 

G|----------------|----------------|----------------|----------------| 
D|--------5---3---|----------------|----5---3-------|3-3-5-----------| 
A|3---6-----------|----------------|3-----------6---|--------6---\---| 
E|----------------|----------------|----------------|----------------| 

Pre-verse 2:55 
G|----------------|----------------|----------------|----------------| 
D|----------------|----------------|----5---3-------|8-8-7---5-------| 
A|----------------|----------------|3-----------6---|------------8---| 
E|----------------|----------------|----------------|----------------| 

G|----------------|----------------|----------------|----------------| 
D|--------5---3---|----------------|----5---3-------|3-3-5-----------| 
A|3---6-----------|----------------|3-----------6---|--------6---\---| 
E|----------------|----------------|----------------|----------------| 

verse 3:06 
G|----------------|----------------|----------------|----------------| 
D|----------------|----------------|----------------|----------------| 
A|3---------------|3---------------|3---------------|3---------------| 
E|----------------|----------------|----------------|----------------| 

G|----------------|----------------|----------------|----------------| 
D|----------------|----------------|----5---3-------|8-8-7---5-------| 
A|----------------|----------------|3-----------6---|------------8---| 
E|----------------|----------------|----------------|----------------| 

G|----------------|----------------|----------------|----------------| 
D|--------5---3---|----------------|----5---3-------|3-3-5-----------| 
A|3---6-----------|----------------|3-----------6---|--------6---\---| 
E|----------------|----------------|----------------|----------------| 

G|----------------|----------------|----------------|----------------| 
D|----------------|----------------|----5---3-------|8-8-7---5-------| 
A|----------------|----------------|3-----------6---|------------8---| 
E|----------------|----------------|----------------|----------------| 

Chorus 3:34 
G|----------------|----------------|----------------|----------------| 
D|----------------|----------------|----------------|----------------| 
A|3---------------|----------------|----------------|----------------| 
E|----------------|----------------|----------------|----------------| 

G|----------------|----------------|----------------|----------------| 
D|----------------|----------------|----------------|----------------| 
A|3---------------|----------------|----------------|----------------| 
E|----------------|----------------|----------------|----------------| 

G|----------------|----------------|----------------|----------------| 
D|--------5---3---|----------------|----5---3-------|3-3-5-----------| 
A|3---6-----------|----------------|3-----------6---|--------6---\---| 
E|----------------|----------------|----------------|----------------| 

G|----------------|----------------|----------------|----------------| 
D|--------5---3---|----------------|----------------|----------------| 
A|3---6-----------|----------------|3---------------|----------------| 
E|----------------|----------------|----------------|----------------| 

Outro 3:56 
G|----------------|----------------|----------------|----------------| 
D|--------5---3---|----------------|----5---3-------|3-3-5-----------| 
A|3---6-----------|----------------|3-----------6---|--------6---\---| 
E|----------------|----------------|----------------|----------------| 

G|----------------|----------------|----------------|----------------| 
D|--------5---3---|----------------|----5---3-------|8-8-7---5-------| 
A|3---6-----------|----------------|3-----------6---|------------8---| 
E|----------------|----------------|----------------|----------------| 

G|----------------|----------------|----------------|----------------| 
D|--------5---3---|----------------|----5---3-------|3-3-5-----------| 
A|3---6-----------|----------------|3-----------6---|--------6---\---| 
E|----------------|----------------|----------------|----------------| 

G|----------------|----------------|----------------|----------------| 
D|--------5---3---|----------------|----5---3-------|8-8-7---5-------| 
A|3---6-----------|----------------|3-----------6---|------------8---| 
E|----------------|----------------|----------------|----------------| 

G|----------------|----------------|----------------|----------------| 
D|--------5---3---|----------------|----5---3-------|3-3-5-----------| 
A|3---6-----------|----------------|3-----------6---|--------6---\---| 
E|----------------|----------------|----------------|----------------| 

G|----------------|----------------|----------------|----------------| 
D|--------5---3---|----------------|----------------|----------------| 
A|3---6-----------|----------------|3---------------|----------------| 
E|----------------|----------------|----------------|----------------| 

G|----------------|----------------|----------------|----------------| 
D|--------5---3---|----------------|----5---3-------|3-3-5-----------| 
A|3---6-----------|----------------|3-----------6---|--------6---\---| 
E|----------------|----------------|----------------|----------------| 

G|----------------|----------------|----------------|----------------| 
D|--------5---3---|----------------|----5---3-------|8-8-7---5-------| 
A|3---6-----------|----------------|3-----------6---|------------8---| 
E|----------------|----------------|----------------|----------------| 

G|----------------|----------------|----------------|----------------| 
D|--------5---3---|----------------|----5---3-------|3-3-5-----------| 
A|3---6-----------|----------------|3-----------6---|--------6---\---| 
E|----------------|----------------|----------------|----------------| 

G|----------------|----------------|----------------|----------------| 
D|--------5---3---|----------------|----5---3-------|8-8-7---5-------| 
A|3---6-----------|----------------|3-----------6---|------------8---| 
E|----------------|----------------|----------------|----------------|  



************************************ 

| /   Slide up 

************************************ 
    	

enviado porenviado por: fernsantana
cifra enviadaCorrigida por: sem correções
logo top cifrasComente
ico música do artistaMúsicas deste artista
ico curtiuCurtiu?
ico destaqueDestaque
Petaxxon Comunicação Online

Cifras.com.br - Melhor e mais completo site de cifras e tablaturas do Brasil Mais de 1 milhão de acordes de músicas cadastradas desde 2003
As informações contidas no nosso site são colaborações de seus usuários e podem conter erros, sendo assim, não nos responsabilizamos sobre nenhuma destas.

close
menos
mais
close
Cor dos acordes:

Cor da letra:

close
Alinhar acordes a direita Alinhar acordes a esquerda Alinhar acordes em baixo Alinhar acordes no topo
close
  Mostrar todos os acordes Esconder acordes muito fáceis Esconder acordes fáceis Esconder acordes intermediários
redimensionar
glossário