Cifras e Tablaturas
Stevie  Wonder

Stevie Wonder

I Wish

Ano: 1963
Album : #1's (Eco-Friendly Packaging)

Cifras Cancelar Versão de Impressão
cifras

Stevie Wonder - I Wish

fixar na tela  
Exibindo: vídeo-aula ver clipes redimensionar

Tom:

Eb

  Celula básica do groove 1 

--------------------------3------------------------------------- 
----------------------4-6---6----------------------------------- 
-6------1----3-4-5-6-----------3-4-5-6-------------------------- 
----2-4---4----------------------------------------------------- 


Variação a 

--------------------------3------------------------------------- 
----------------------4-6---6----------------------------------- 
-6------1----3-4-5-6-----------3-4-5---------------------------- 
----2-4---4--------------------------6-------------------------- 



Variação b 

--------------------------3----11h13-11/12\11/12\11------------- 
----------------------4-6---6----------------------------------- 
-6------1----3-4-5-6-------------------------------------------- 
----2-4---4----------------------------------------------------- 


  
Groove 2 


---------------------------------------------------------------- 
------------------------------5-6-5-6-8------------------------- 
------------5-----5-6-7-8-7-8----------------------------------- 
-3-4-5-6--8---6-8----------------------------------------------- 



---------------------------------------------------------------- 
--------------------5-6-7-8------------------------------------- 
------5-----5-6-7-8---------8----------------------------------- 
--6-8---6-8-------------------6--6--6--------------------------- 


Especial 


---------------3--11p10----------------------6p5-------------h9- 
-----------4-6-----------13-11--------------------6-4-6h8p6----- 
-6--4-6--4---------------------------9-------------------------- 
-------------------------------9h11-----11---------------------- 
  

top 5 | stevie wonder
top pop music
Outras músicas do artista letras do(a) Stevie Wonder
Top cifras »Top artistas »
Petaxxon Comunicação Online
Cifras.com.br - Melhor e mais completo site de cifras e tablaturas do Brasil
Mais de 1 milhão de acordes de músicas cadastradas desde 2003
As informações contidas no nosso site são colaborações de seus usuários e podem conter erros, sendo assim, não nos responsabilizamos sobre nenhuma destas.
close
menos
mais
close
Cor dos acordes:

Cor da letra:

 

save
close
close
 
redimensionar