Cifras e Tablaturas
The Beatles

The Beatles

Taxman

Ano: 1966
Album : Revolver [UK]
Compositor : (Harrison)

Cifras Cancelar Versão de Impressão
cifras

The Beatles - Taxman

fixar na tela  
Exibindo: vídeo-aula ver clipes redimensionar

Tom:

D

  Intro 


----7-7--------5-------7-7--------5----------------------------- 
---------5-5h7--------------5-5h7------------------------------- 
-5------------------5------------------------------------------- 
---------------------------------------------------------------- 

Chorus 1 


Parte A 



---7-7--------5------7-7--------5-------------5-----7-7--------5 
--------5-5h7-------------5-5h7-----------5h7------------5-5h7-- 
5-----------------5-----------------5--5---------5-------------- 
---------------------------------------------------------------- 




--7-7--------5------7-7--------5-------------5-----7-7--------5\ 
-------5-5h7-------------5-5h7-----------5h7------------5-5h7--- 
5----------------5-----------------5--5---------5--------------- 
---------------------------------------------------------------- 



Parte B 



----5--------1------5-5-------1--------------------------------- 
-------3-3h5------------3-3h5--------5--------1----------------- 
-3---------------3----------------------3-3h5------------------- 
----------------------------------3----------------------------- 



----7-7--------5-------7-7--------5----------------------------- 
---------5-5h7--------------5-5h7------------------------------- 
-5------------------5------------------------------------------- 
---------------------------------------------------------------- 

Chorus 2 

Parte A com fill para B  

---7-7--------5------7-7--------5-------------5-----7-7--------5 
--------5-5h7-------------5-5h7-----------5h7------------5-5h7-- 
5-----------------5-----------------5--5---------5-------------- 
---------------------------------------------------------------- 


---7-7--------5------7-7--------5-------------5-----7-7--------5 
--------5-5h7-------------5-5h7-----------5h7------------5-5h7-- 
5-----------------5-----------------5--5---------5-------------- 
---------------------------------------------------------------- 


---------------------------------------------------------------- 
-7--5h7--------------------------------------------------------- 
---------------------------------------------------------------- 
---------------------------------------------------------------- 


Parte B 



----5--------1------5-5-------1--------------------------------- 
-------3-3h5------------3-3h5--------5--------1----------------- 
-3---------------3----------------------3-3h5------------------- 
----------------------------------3----------------------------- 



----7-7--------5-------7-7--------5----------------------------- 
---------5-5h7--------------5-5h7------------------------------- 
-5------------------5------------------------------------------- 
---------------------------------------------------------------- 


Chorus 3 



---------------------------------------------------------------- 
--------12--------10-12-10--------------12--------10-12-10\----- 
-----12-----10-12----------12\-------12-----10-12--------------- 
-10------------------------------10----------------------------- 



---------------------------------------------------------------- 
--------12--------10-12-10\------------------------------------- 
-----12-----10-12----------------------------------------------- 
-10---------------------------8--8--8-8-8-8--------------------- 




---------------------------------------------------------------- 
--------12--------10-12-10\--------------12--------10-12-10\---- 
-----12-----10-12--------------------12-----10-12--------------- 
-10------------------------------10----------------------------- 



---------------------------------------------------------------- 
--------12--------10-12-10\------------------------------------- 
-----12-----10-12----------------------------------------------- 
-10---------------------------8--8--8-8-8-8-----8--8-8-8-8-8-8-- 



----7-7--------5-------7-7--------5----------------------------- 
---------5-5h7--------------5-5h7------------------------------- 
-5------------------5------------------------------------------- 
---------------------------------------------------------------- 


Solo Guitarra 


-----------5------7-7-------5------7-7-------5------7-7-------5- 
-------5h7------------5-5h7------------5-5h7------------5-5h7--- 
-5--5----------5----------------5----------------5-------------- 
---------------------------------------------------------------- 




-----------5------7-7-------5\---------------------------------- 
-------5h7------------5-5h7------------------------------------- 
-5--5----------5------------------------------------------------ 
---------------------------------------------------------------- 


Volta Parte B 



----5--------1------5-5-------1--------------------------------- 
-------3-3h5------------3-3h5--------5--------1----------------- 
-3---------------3----------------------3-3h5-----0------------- 
----------------------------------3----------------------------- 



----7-7--------5-------7-7--------5----------------------------- 
---------5-5h7--------------5-5h7------------------------------- 
-5------------------5------------------------------------------- 
---------------------------------------------------------------- 


Chorus 4 


Parte A 

---7-7--------5------7-7--------5-------------5-----7-7--------5 
--------5-5h7-------------5-5h7-----------5h7------------5-5h7-- 
5-----------------5-----------------5--5---------5-------------- 
---------------------------------------------------------------- 



--7-7--------5------7-7--------5-------------5-----7-7--------5\ 
-------5-5h7-------------5-5h7-----------5h7------------5-5h7--- 
5----------------5-----------------5--5---------5--------------- 
---------------------------------------------------------------- 




Parte B 

----5--------1------5-5-------1--------------------------------- 
-------3-3h5------------3-3h5--------5--------1----------------- 
-3---------------3----------------------3-3h5------------------- 
----------------------------------3----------------------------- 



----7-7--------5-------7-7--------5----------------------------- 
---------5-5h7--------------5-5h7------------------------------- 
-5------------------5------------------------------------------- 
---------------------------------------------------------------- 



Chorus 5 

Parte a com fill 2 pra B 


---7-7--------5------7-7--------5-------------5-----7-7--------5 
--------5-5h7-------------5-5h7-----------5h7------------5-5h7-- 
5-----------------5-----------------5--5---------5-------------- 
---------------------------------------------------------------- 



---7-7--------5------7-7--------5-------------5----7---5-----7-- 
--------5-5h7-------------5-5h7-----------5h7--------7---7-5---5 
5-----------------5-----------------5--5---------5-------------- 
---------------------------------------------------------------- 


Parte B 


---5---------1------5-5-------1--------------------------------- 
-------3-3h5---5--------3-3h5---5----5---------1---------------- 
-3---------------3----------------------3-3h5-----0------------- 
----------------------------------3----------------------------- 



----7-7--------5-------7-7--------5\---------------------------- 
---------5-5h7--------------5-5h7-----3-3-3-3-3-2-0------------- 
-5------------------5-------------------------------3----------- 
---------------------------------------------------------------- 
  

cifra enviadasem correções
enviado porenviada por:Teusalves
top 5 | the beatles
top rock'n roll
Outras músicas do artista letras do(a) The Beatles
Top cifras »Top artistas »
Petaxxon Comunicação Online
Cifras.com.br - Melhor e mais completo site de cifras e tablaturas do Brasil
Mais de 1 milhão de acordes de músicas cadastradas desde 2003
As informações contidas no nosso site são colaborações de seus usuários e podem conter erros, sendo assim, não nos responsabilizamos sobre nenhuma destas.
close
menos
mais
close
Cor dos acordes:

Cor da letra:

 

save
close
close
 
redimensionar