Cifras e Tablaturas
The Police

The Police

Every little thing she does is magic Tablatura de Baixo Verificada

Ano: 1981
Album : Every Breath You Take: The Singles

Cifras Cancelar Versão de Impressão
cifras

The Police - Every little thing she does is magic

fixar na tela  
Exibindo: vídeo-aula ver clipes redimensionar

Tom:

  Intro  

------------4----6---------------4----6-------------------------  
-5----7\--------------5----7\-----------------------------------  
------------2----4---------------2----4-------------------------  
-3----5\--------------3----5\-----------------------------------  


Estrofe 1  


------------4----6---------------4----6-------------------------  
-5----7\--------------5----7\-----------------------------------  
------------2----4---------------2----4-------------------------  
-3----5\--------------3----5\-----------------------------------  


------------4------------7----------7------------7--------------  
-5----7\---------6---------5-7----------5-7--------5-7----------  
------------2---------5--------7-5----5-----7-5--------7-5\-----  
-3----5\---------4----------------------------------------------  


Refrão 1  


----------------------------------------------------------------  
--------------4-7-------------4-------------------4-7-----------  
------4---5-5---------4---5-5---7-5-----4---5-5-5---------4-----  
-4-5---------------5-----------------5-----------------5--------  



-----------------4----6-----------------------------------------  
-----3----------------------------------------------------------  
-1---------------2----4-----------------------------------------  
---------3---5--------------------------------------------------  

Estrofe 2  


------------4----6---------------4----6-------------------------  
-5----7\--------------5----7\-----------------------------------  
------------2----4---------------2----4-------------------------  
-3----5\--------------3----5\-----------------------------------  



------------4----6--------------7------------7------------------  
-5----7\----------------5-7---------5-7--------5-7--------------  
------------2----4---5------7-5---5-----7--5-------7-5----------  
-3----5\--------------------------------------------------------  


Refrão 2  

----------------------------------------------------------------  
-----------4---------------4---------------4--------------3----3  
----4--5-5---7-5----4--5-5---7-5----4--5-5---7-5-----4--1----1--  
-5---------------5---------------5----------------5-------------  


Especial  

----------------------------------------------------------------  
----------------------------------------------------------------  
-1--0-----0-----0--1--0--1-1-1-1--3-3-3-3--1-1-1-1--3-3-3-3-----  
-------3-----3--------------------------------------------------  



-----------------------------------------7----------------------  
-------------------------------------------5-7------------------  
-1-1-1-1--3-3-3-3--1-1-1-1--3-3-3-3---5--------7-5--------------  
----------------------------------------------------------------  


Refrão 3  


----------------------------------------------------------------  
-----------4-------------------------------------4--------------  
----4--5-5---7-5-----4---5--5--5----7-----4--5-5----7-7-5-------  
-5----------------5---------------7----5------------------------  



----------------------------------------------------------------  
-----------4------------------4---------------------------------  
----4--5-5---7-7-5-----4--5-5---7-5-----4--5-5-5----7-----------  
-5------------------5----------------5------------7-------------  


----------------------------------------------------------------  
-----------4----------------------------------------------------  
----4--5-5---7-5-----4------------------------------------------  
-5----------------5---------------------------------------------  


Final  


----------------------------------------------------------------  
----3--3/5--5/7-----3----------------7--------5-----------------  
-1---------------1-----3----5----------5----7---7-5-------------  
---------------------------------7-5----------------------------  



-----------------------------------------7----------------------  
----3--3/5--5/7-----3------------------7---7--------------------  
-1---------------1-----3--5-------7-5---------5-----------------  
-----------------------------7-5--------------------------------  



---------------------------------------7------------------------  
----3--3/5--5/7-----3--------5-7---------5-7--------------------  
-1---------------1-----3--5------7-5---------5------------------  
----------------------------------------------------------------  




-------------------------------7---------7----------------------  
----3--3/5--5/7-----3------------5-7-------5-7------------------  
-1---------------1-----3--5-5--------7-5-------7----------------  
----------------------------------------------------------------  



------3----5-5-----------------------3-----------7--------7---7-  
----3---3------3/5----5/7----7/----3---3-----------5-7------7--7  
-1------------------5------7----1---------3--5-5-------7-5------  
----------------------------------------------------------------  



------3---3-3------------------------3--------------------------  
----3---------3---3-3/5----5/7-----3-----3----------------------  
-1------1-----------------------1------1-----3-3----------------  
----------------------------------------------------------------  




---------------------------------------7-7----------------------  
-------------------------------------7--------------------------  
-5-5------7-5--------7--5-------7-5-----------------------------  
------7-5------7-5-7-------7-5----------------------------------  



------------------5---------------------------------------------  
----3---3/5--5/7----7-8--8/10-----------------------------------  
-1--------------------------------------------------------------  
----------------------------------------------------------------  


----------------------------------------------------------------  
----7-7-----7-7-----7-7-----7-7-----7-7-----7-7-----7-7-----7-7-  
-5------5-5-----5-5-----5-5-----5-5-----5-5-----5-5-----5-5-----  
----------------------------------------------------------------  


-6h7-------6h7-------6h7-------6h7-------6h7-------6-7------6-7-  
-------7-7-------7-7-------7-7-------7-7-------7-7------7-7-----  
-----5---------5---------5---------5---------5--------5---------  
----------------------------------------------------------------  


-------6-7-------6-7--------------------------------------------  
----7-7-------7-7-----------------------------------------------  
--5---------5-----------------2--4--5--7--5---------------------  
------------------------3--5------------------------------------  

  

top 5 | the police
top rock'n roll
Outras músicas do artista letras do(a) The Police
Top cifras »Top artistas »
Petaxxon Comunicação Online
Cifras.com.br - Melhor e mais completo site de cifras e tablaturas do Brasil
Mais de 1 milhão de acordes de músicas cadastradas desde 2003
As informações contidas no nosso site são colaborações de seus usuários e podem conter erros, sendo assim, não nos responsabilizamos sobre nenhuma destas.
close
menos
mais
close
Cor dos acordes:

Cor da letra:

 

save
close
close
 
redimensionar