Cifras e Tablaturas
The Teardrops (US girl group)

The Teardrops (US girl group)

I Who Have Nothing

Cifras Cancelar Versão de Impressão Print

The Teardrops (US girl group) - I Who Have Nothing

Tom:

  • 0:00 / 0:00
  			Tabbed by: 6METAL6BASSIST6 
E-mail: [email protected] 

Tuning: EADG 

G|------------------------------------------------------------------------------------------------| 
D|------------------------------------------------------------------------------------------------| 
A|------------------------------------------------3-------------------3---3-----------------------| 
E|1-------------------1---1-------------------3-----------------------------------------/-4---3---| 

G|------------------------------------------------------------------------------------------------| 
D|------------------------------------------------------------------------------------------------| 
A|------------------------------------------------1-----------------------1-----------------------| 
E|1-------------------1---1-------------------1-----------------------1-----------------/-4---3---| 

0:19 

G|------------------------------------------------------------------------------------------------| 
D|------------------------------------------------------------------------------------------------| 
A|------------------------------------------------1-----------------------1---------------4-------| 
E|1-------------------1---1-------------------1-----------------------1---------------------------| 

G|------------------------------------------------------------------------------------------------| 
D|------------------------6-----------------------------------------------6-----------------------| 
A|----------------3---6-----------------------6-\-3---------------3---6-----------6-------1---3---| 
E|4-----------------------------------------------------------4-----------------------4-----------| 

G|------------------------------------------------------------------------------------------------| 
D|--------------------6-----------------------6---------------------------------------------------| 
A|4---------------4-------3---------------3-------4---4---4---4---4---4---4-----------------------| 
E|------------------------------------------------------------------------------------------------| 

0:46 

G|------------------------------------------------------------------------------------------------| 
D|------------------------------------------------------------------------------------------------| 
A|--------------------3---------------------------3-----------------------3-----------------------| 
E|1-----------------------1-------------------3-----------------------3-----------------/-4---3---| 

G|------------------------------------------------------------------------------------------------| 
D|------------------------------------------------------------------------------------------------| 
A|------------------------------------------------3-----------------------3-----------------------| 
E|1-------------------1---1-------------------3-----------------------3-----------------/-4---3---| 

1:04 

G|------------------------------------------------------------------------------------------------| 
D|----------------------------------------------------------------3---5---------------------------| 
A|--------------------3----------------------------3----------------------3-----------------------| 
E|1-----------------------1-------------------3-------------------------------------------4---3---| 

G|--------------------| 
D|----------------3---| 
A|--------3-----------| 
E|1-------------------| 
    	

enviado porenviado por: sabrjoao
cifra enviadaCorrigida por: sem correções
logo top cifrasComente
ico música do artistaMúsicas deste artista
ico curtiuCurtiu?
ico destaqueDestaque
Petaxxon Comunicação Online

Cifras.com.br - Melhor e mais completo site de cifras e tablaturas do Brasil Mais de 1 milhão de acordes de músicas cadastradas desde 2003
As informações contidas no nosso site são colaborações de seus usuários e podem conter erros, sendo assim, não nos responsabilizamos sobre nenhuma destas.

close
menos
mais
close
Cor dos acordes:

Cor da letra:

close
Alinhar acordes a direita Alinhar acordes a esquerda Alinhar acordes em baixo Alinhar acordes no topo
close
  Mostrar todos os acordes Esconder acordes muito fáceis Esconder acordes fáceis Esconder acordes intermediários
redimensionar
glossário