Cifras e Tablaturas
Titãs

Titãs

Polícia Tablatura de Baixo Verificada

Compositor : (Tony Bellotto)

Cifras Cancelar Versão de Impressão
cifras

Titãs - Polícia

fixar na tela  
Exibindo: vídeo-aula ver clipes redimensionar

Tom:

  
Intro: 

G|----------------------------|-------------------------------| 
D|----------------------------|-------------------------------| 
A|--2--2--5--5--0--0--0--0--0-|-2--2--5--5--0--0--0--0--0--0--| 
E|----------------------------|-------------------------------| 
                               (3x) 

Verse: 

G|-------------------------------|-----------------------------------| 
D|-------------------------------|-----------------------------------| 
A|-2--2--5--5--0--0--0--0--0--0--|--2--2--5--5--0--0--0--------0--2--| 
E|-------------------------------|-----------------------0--2--------| 
                              (3x) 

Chorus: 

G|--------------------------------------------------------------| 
D|--------------------------------------------------------------| 
A|--2--2--2--2--0--0--0--0--0--2--2--5--5--5--0--0--0--0--0--0--| 
E|--------------------------------------------------------------| 

G|--------------------------------------------------------------| 
D|--------------------------------------------------------------| 
A|--2-2-2--2-2-2--0--0--0--0--0--2--2--5--5--5--0--0--0-------0-| 
E|------------------------------------------------------0--2----| 

Interlude: 

G|--------------|--------------|---------| 
D|--------------|--------------|---------| 
A|--------------|--0--0--0--0--|--0--0---| 
E|--0--0--0--0--|--------------|---------| 
             (4x)             (4x) 

End: 

G|-----------------| 
D|-----------------| 
A|--2--2--2--2-----| 
D|--------------0--| 

  

top 5 | titãs
top rock'n roll
Outras músicas do artista letras do(a) Titãs
Top cifras »Top artistas »
Petaxxon Comunicação Online
Cifras.com.br - Melhor e mais completo site de cifras e tablaturas do Brasil
Mais de 1 milhão de acordes de músicas cadastradas desde 2003
As informações contidas no nosso site são colaborações de seus usuários e podem conter erros, sendo assim, não nos responsabilizamos sobre nenhuma destas.
close
menos
mais
close
Cor dos acordes:

Cor da letra:

 

save
close
close
 
redimensionar