Cifras e Tablaturas
Faith no More

Faith no More

Smaller And Smaller

Ano: 1992
Album : Angel Dust

Cifras Cancelar Versão de Impressão Print

Faith no More - Smaller And Smaller

Tom:

  			

Smaller And Smaller
-------------------
Transcribed by: Rob Shorney ([email protected])


Drums                                             Guitar
HH=High hat                                       /=slide up 
ST=small tom                                      \=slide down
SD=snare                                          FB=full bend
LT=large tom                                      X=dead note
BD=bass drum                                      PM=palm mute 
RC=ride cymbal
 
 (Intro)
E |------------------------------------|-------------------|
B |------------------------------------|-------------------|
G |----------------------------------9-|-----------------9-|
D |--9---------------------------9-9-9-|-----------------9-|
A |--7---------------------7-7-7-7-7-7-|---------7-7-7-7-7-|
E |--0-0-0-0-0-0-0-0---0-0-0-0-0-0-0-0-|-0-0-0-0-0-0-0-0-0-|
  |                                                        |
  |  X                             X                       |
HH|------------------------------------|-------------------|
ST|------------------------------------|-------------------|
SD|--X-------X---X-----X-----X-----X---|---XXXXXXXXXXXXXXXX|
LT|--X-X-X-X-X-X-X-X---X-X-X-X-X-X-X-X-|---XXXXXXXXXXXXXXXX|
BD|--X---X---X---X-----X---X---X---X---|---X---X---X---X---|


  (Verse/Chorus)
   PM......                             PM......           PM........
E |------------------------------------|------------------------------------|
B |------------------------------------|------------------------------------|
G |------------------------------------|------------------------------------|
D |----------9-----------9-----9/10\9--|----------7---------------------10--|
A |----------7-----------7-----7/-8\7--|----------5---------------------8---|
E |--0-0-0-0-0----------00---0-0-------|--0-0-0-0-0-----------0-0-0-0---0---|
  |                                                                         |
  |                                        X                           X    |
HH|--X---X---X---X-----X---X---X---X---|-------X---X---X-----X---X---X------|
ST|------------------------------------|------------------------------------|
SD|----------X-----------------X-------|-----------X-----------------X-X----|
LT|------------------------------------|---X-X------------------------------|
BD|--X-X---X-----X-X-----X---X-----X-X-|---X-X---X-----X-X-----X---X--------|



    PM......                             PM.......
E |------------------------------------|-----------------------------------||
B |------------------------------------|-----------------------------------||
G |------------------------------------|-----------------------------------||
D |----------9-----------9-----9/10\9--|-----------4-----------4------2----||
A |----------7-----------7-----7/-8\7--|-----------5-----------5------3----||
E |--0-0-0-0-0---------0-0-0---0-------|---0-0-0-0-----------0-----0-------||
  |                                                                        ||   
  |  X                                    X                             X  ||
HH|------X---X---X-----X---X---X---X---|-------X---X---X-----X---X---X-----||
ST|------------------------------------|-----------------------------------||
SD|----------X-----------------X-------|-----------X-----------------X-----||
LT|--X-X-------------------------------|---X-X-----------------------------||
BD|--X-X---X-----X-X-----X---X-----X-X-|---X-X---X-----X-X-----X---X----X--||


E |------------------------------------|------------------------------------|
B |------------------------------------|------------------------------------|
G |------------------------------------|------------------------------------|
D |----------9-----------9-----9/10\9--|-----------7-----------------7---10-|
A |----------7-----------7-----7/-8\7--|-----------5-----------------5---8--|
E |--0-0-0-0-0---------0-0-0---0-------|---0-0-0-0-------------0-0-0--------|
  |                                                                         | 
  |  X                                     X                                |
HH|------X---X---X-----X---X---X---X---|-------X---X---X-----X---X---X---X--|
ST|------------------------------------|------------------------------------|
SD|----------X-----------------X-------|-----------X-----------------X------|
LT|--X-X-------------------------------|---X-X------------------------------|
BD|--X-X---X-----X-X-----X---X-----X-X-|---X-X---X-----X-X-----X---X-----X-X|



E |------------------------------------|------------------||------------------|
B |------------------------------------|------------------||------------------|
G |------------------------------------|------------------||------------------|
D |----------9-----------9-----9/10\9--|-----------4------||-----------0-h-p-6|
A |----------7-----------7-----7/-8\7--|-----------5------||-----7-8-7---787--|
E |--0-0-0-0-0---------0-0-0---0-------|---0-0-0-0--------||------------------|
  |                                                       ||                  | 
HH|------------------------------------|---X---X---X---X-RC|---X---X---X---X--|
SD|-------same shit--------------------|-----------X---X--||---X-------X------|
BD|------------------------------------|---X-X---X--------||-----X-------X--
--|                                               
                                                            
E |------------------------------------|------------------||
B |------------------------------------|------------------||
G |------------------------------------|------------------||
D |----------9-------------------------|-----------9------||
A |--8-7-----7-----------------0-H-P-6-|---8-7-----7------||
E |------0-0-0-----------7-8-7---787---|-------0-0-0------||
  |                                                       ||
RC|--X---X---X---X-----X---X---X---X---|---X---X---X---X--||
SD|--X-X-----X---------X-------X-------|---X-X-----X------||
BD|--------X-------------X-------X-----|---------X--------||


(Bridge?)
HH|----------------------------------||
SD|---------X---X-----------X---X----||
BD|---X-------------X-X-----------X--||
   Right above is the part of the song where there's Indians chanting or
something. After you play that forever, Both instruments play the (intro)
which is also the build up to the solo. For the solo (Drums) can just fuck
around with the verse. For guitar, play something like this:

E|---------------------------------------------------------------------------|
B|-----------------------------------------------------------------FB--------|
G|----------------------------------------------12-11-12-11-12-11--12--12-11-|
D|-------6--6---/10------6--6---/10-9------9---------------------------------|
A|---/8---------------8------------------7-----------------------------------|
E|---------------------------------------------------------------------------|

E|---------------------------------------------------------------------------|
B|---------------------------------------------------------------------------|
G|--12-11----------11-12-11-------------------------------------------/X\----|
D|--------14-13-14----------14-13-14--------7-------------------------/X\----|
A|--------------------------------------7-8---8-7-5-7-5-3-5-3-2-3-2---/X\----|
E|---------------------------------------------------------------------------|

E|---------------------------------------------------------------------------|
B|----------------H------------------------H---------------------------------|
G|-----------11-11-12-11--------------14-11-12-11----------------------------|
D|-----------------------14-----------------------14------------------7------|
A|------7-------------------------5-------------------------7-----7-8---8-7--|
E|--/7------------------------/5------------------------/7-------------------|

E|---------------------|| That's really all you need to know in order to play 
B|---------------------|| this song.(For Drums and Guitar anyways) There is an 
G|---------------------|| outro of course, and again for drums it's basicaly
D|---------------------|| just that damned verse riff changed around slightly.
A|--5-7-5-3-5-3-2-3-2--|| And for guitar you keep playing an E chord and letting 
E|---------------------|| it ring.

Well that was the first time I ever tried to tab two instruments at once,
and I don't know if that was too confusing for you. If it was I'm sorry. And
if you had any problems at all with this method or if you know how I could
correct myself in the future, please e-mail me at: [email protected]

    	
fixar
fixar inscrever-se

enviado porenviado por: anônimo
cifra enviadaCorrigida por: sem correções
logo top cifrasComente
ico música do artistaMúsicas deste artista
ico curtiuCurtiu?
ico destaqueDestaque
Petaxxon Comunicação Online

Cifras.com.br - Melhor e mais completo site de cifras e tablaturas do Brasil Mais de 1 milhão de acordes de músicas cadastradas desde 2003
As informações contidas no nosso site são colaborações de seus usuários e podem conter erros, sendo assim, não nos responsabilizamos sobre nenhuma destas.

close
menos
mais
close
Cor dos acordes:

Cor da letra:

close
Alinhar acordes a direita Alinhar acordes a esquerda Alinhar acordes em baixo Alinhar acordes no topo
close
  Mostrar todos os acordes Esconder acordes muito fáceis Esconder acordes fáceis Esconder acordes intermediários
redimensionar
glossário