Cifras e Tablaturas
Kreator

Kreator

Coma Of Souls

Ano: 1991
Album : Enemy of God Revisited (CD/DVD)

Cifras Cancelar Versão de Impressão Print

Kreator - Coma Of Souls

Tom:

  • 0:00 / 0:00
  			Intro 
e|-----------------------------------------------------------------------| 
b|-----------------------------------------------------------------------| 
g|o----------------------------------------------------------------------| 
d|o-8-------7---5-------4-3-3-------5-4-4-------5-5-6--------------------| 
a|--8-------7---5-------2-1-3-------3-2-4-------5-3-4--------------------| 
E|--6---0-0-5---3---0-0-----1---0-0-----2---0-0-3------------------------| 
* * * * * * * * 
e|-----------------------------------------------------------------------| 
b|-----------------------------------------------------------------------| 
g|----------------------------------------------------------------------o| 
d|--8-------7---5-------4-3-3-------5-4-4--7-6-6------------------------o| 
a|--8-------7---5-------2-1-3-------3-2-4--5-4-6-------------------------| 
E|--6---0-0-5---3---0-0-----1---0-0-----2------4-------------------------| 
* * * * * * 
 
This riff is one of the best ever 
e|-----------------------------------------------------------------------| 
b|-----------------------------------------------------------------------| 
g|o---------------------------------------------------------------------o| 
d|o-8-------7---5----------------8-------7---5---7-6-6------------------o| 
a|--8-------7---5---2-2-2-2------8-------7---5---5-4-6-------------------| 
E|--6---0-0-5---3---0-0-0-0-0-0--6---0-0-5---3-------4-------------------| 
* * * * * * * * * * 
 
Then it gets faster with these two riffs 
e|-----------------------------------------------------------------------| 
b|-----------------------------------------------------------------------| 
g|o---------------------------------------------------------------------o| 
d|o-9-----7-7-----5-5-----------10--------------------------------------o| 
a|--7-----5-5-----3-3-----9-10--8----------------------------------------| 
E|----0-0-----0-0-----0-0-7-8--------------------------------------------| 
* * * * * * 
e|-----------------------------------------------------------------------| 
b|-----------------------------------------------------------------------| 
g|o---------------------------------------------------------------------o| 
d|o-------7-9-------5-----------10--------------------------------------o| 
a|--------5-7-------3------9-10-8----------------------------------------| 
E|--0-0-0-----0-0-0----0-0-7-8-------------------------------------------| 
* * * * * * * * 
 

    	

enviado porenviado por: matrizarrojito
cifra enviadaCorrigida por: sem correções
logo top cifrasComente
ico música do artistaMúsicas deste artista
ico curtiuCurtiu?
ico destaqueDestaque
Petaxxon Comunicação Online

Cifras.com.br - Melhor e mais completo site de cifras e tablaturas do Brasil Mais de 1 milhão de acordes de músicas cadastradas desde 2003
As informações contidas no nosso site são colaborações de seus usuários e podem conter erros, sendo assim, não nos responsabilizamos sobre nenhuma destas.

close
menos
mais
close
Cor dos acordes:

Cor da letra:

close
Alinhar acordes a direita Alinhar acordes a esquerda Alinhar acordes em baixo Alinhar acordes no topo
close
  Mostrar todos os acordes Esconder acordes muito fáceis Esconder acordes fáceis Esconder acordes intermediários
redimensionar
glossário