Cifras e Tablaturas
10cc

10cc

The Dean And I

Ano: 2007
Album : 10cc

Cifras Cancelar Versão de Impressão
cifras

10cc - The Dean And I

fixar na tela  
Exibindo: vídeo-aula ver clipes redimensionar
  
Intro: 

___Bm______________Em_______________Bm______________Em_____________ 
" Humdrum days and a-humdrum ways,  humdrum days and a-humdrum ways... " 
e|-----7-------7-------7-7---7-7--|-----7-------7-------7-7---7-7--| 
B|-----7-------7-------8-8---8-8--|-----7-------7-------8-8---8-8--| 
G|-----7-------7-------9-9---9-9--|-----7-------7-------9-9---9-9--| 
D|-----9-------9-------9-9---9-9--|-----9-------9-------9-9---9-9--| 
A|-----9-------9-------7-7---7-7--|-----9-------9-------7-7---7-7--| 
E|-----7-------7------------------|-----7-------7------------------| 

 | 1   &   2   &   3   &   4   &  | 1   &   2   &   3   &   4   &  | 


Verse: strum freely 


___D_(xx0232)_______________________G_(3x0033)_____________________ 
         " Hey kids    let me  tell     you how I met your mom... " 


___D/F#_(2x0232)____________________Em7_(022033)___________________ 

e|--------------------------------|--------------------------------| 
B|--------------------------------|--------------------------------| 
G|---------9b11-9b11~~~r9p7h9~~---|-7~~~~~~~~~~-9------------------| 
D|-----------------------------9--|--------------------------------| 
A|--------------------------------|--------------------------------| 
E|--------------------------------|--------------------------------| 


___D_(xx0232)_______________________G_(3x0033)_____________________ 
     " We were dan  -  cing and  ro-mancing at the senior prom... " 


___D/F#_(2x0232)____________________Em7_(022033)___________________ 
                                                          " It was... " 
e|--------------------------------|--------------------------------| 
B|--------------------------------|--------------------------------| 
G|---------9b11-9b11~~~r9p7h9~~---|-7~~~~~~~~~~--------------------| 
D|-----------------------------9--|-------------9~~~\--------------| 
A|--------------------------------|--------------------------------| 
E|--------------------------------|--------------------------------| 


___F#m_(244222)____________________________________________________ 
"  no      in   -  fat  -  ua - tion...                     but a... " 


___Em7_(022030)____________________________________________________ 
 " grad - ual   -  grad  - u - a - tion                     from a... " 


___Bm_(x24432)______________________Gm_(355333)____________________ 
 " boy  to a   man        let me    tell you while I can        the... " 


___F#m_(244222)_____________________Em_(022000)____________________ 
 " So  -   da      pop     came     free... " 



Repeat verse.   

Second time:  "But in the... " 


___F#m7____________________________________________________________ 
 " eyes    of the  dean    his   daughter...                    was... " 
e|-9-------9-------9-------9------|-9-------9-------9-------9------| 
B|-10------10------10------10-----|-10------10------10------10-----| 
G|-9-------9-------9-------9------|-9-------9-------9-------9------| 
D|-11------11------11------11-----|-11------11------11------11-----| 
A|-9-------9-------9-------9------|-9-------9-------9-------9------| 
E|--------------------------------|--------------------------------| 


___Em7_____________________________________________________________ 
 " doin' what she  shouldn't     oughta...                  but a... " 
e|-7-------7-------7-------7------|-7-------7-------7-------7------| 
B|-8-------8-------8-------8------|-8-------8-------8-------8------| 
G|-7-------7-------7-------7------|-7-------7-------7-------7------| 
D|-9-------9-------9-------9------|-9-------9-------9-------9------| 
A|-7-------7-------7-------7------|-7-------7-------7-------7------| 
E|--------------------------------|--------------------------------| 


___Bm_(799777)______________________Gm_(355333)____________________ 
 " mans gotta     do what a mans gotta do                        the... " 


___F#m_(244222)_____________________Em_(022000)____________________ 
 " con  -  se   -  quence  should   be...                    church ... " 


___D_(xx0232)_______________________G6/A_(x05430)__________________ 
 " bells,  three swells,   the      dean     his    daughter and... " 



___D_(xx0232)_______________________G_(3x0033)_____________________ 
 " me... " 
e|--------------------------------|--------------------------------| 
B|--------------------------------|--------------------------------| 
G|---------9b11-9b11~~~r9p7h9~~---|-7~~~~~~~~~~-9------------------| 
D|-----------------------------9--|--------------------------------| 
A|--------------------------------|--------------------------------| 
E|--------------------------------|--------------------------------| 


___D/F#_(2x0232)____________________Em7_(022033)___________________ 
                                                          " They were... " 
e|--------------------------------|--------------------------------| 
B|--------------------------------|--------------------------------| 
G|---------9b11-9b11~~~r9p7h9~~---|-7~~~~~~~~~~--------------------| 
D|-----------------------------9--|-------------9~~~\--------------| 
A|--------------------------------|--------------------------------| 
E|--------------------------------|--------------------------------| 


___D_(xx0232)_______________________Am_(577555)____________________ 
 " dating  in  the park   they were smooching in the dark   of  a... " 


___G_(355433)_______________________Gm_(355333)____________________ 
 " door    way             for      two...                  she... " 


___Bm_(x24432)_____________________________________________________ 
 " whis -  pered   I       love     you... " 


___Emaj7______________________________________________________Dmaj7_ 
 " ooh,               you know I've never   felt this way   before... " 
e|-7-------7-------7-------7------|-7-------7-------7-------x---5~~~ 
B|-9-------9-------9-------9------|-9-------9-------9-------x---7~~~ 
G|-8-------8-------8-------8------|-8-------8-------8-------x---6~~~ 
D|-9-------9-------9-------9------|-9-------9-------9-------x---7~~~ 
A|-7-------7-------7-------7------|-7-------7-------7-------x---5~~~ 
E|--------------------------------|--------------------------------| 

 | 1   &   2   &   3   &   4   &  | 1   &   2   &   3   &   4   &  | 

___Dmaj7__________________________ 

e|~~~~~~~~~5-------5-----5-5------| 
B|~~~~~~~~~7-------7-----7-7------| 
G|~~~~~~~~~6-------6-----6-6------| 
D|~~~~~~~~~7-------7-----7-7------| 
A|~~~~~~~~~5-------5-----5-5------| 
E|--------------------------------| 

___Emaj7_______________________________________________F#maj7__Gmaj7_ 
 " ooh,                you know the el - e - vator  in  my      heart... "  
e|-7-------7-------7-------7------|-7-------7-------7---9-------10~~ 
B|-9-------9-------9-------9------|-9-------9-------9---11------12~~ 
G|-8-------8-------8-------8------|-8-------8-------8---10------11~~ 
D|-9-------9-------9-------9------|-9-------9-------9---11------12~~ 
A|-7-------7-------7-------7------|-7-------7-------7---9-------10~~ 
E|--------------------------------|--------------------------------| 

 | 1   &   2   &   3   &   4   &  | 1   &   2   &   3   &   4   &  | 

___Gmaj7__________________________ 
                     " has gone... " 
e|~~~~~~~~~~~~~~~~~~~~~~~~~-------| 
B|~~~~~~~~~~~~~~~~~~~~~~~~~-------| 
G|~~~~~~~~~~~~~~~~~~~~~~~~~-------| 
D|~~~~~~~~~~~~~~~~~~~~~~~~~-------| 
A|~~~~~~~~~~~~~~~~~~~~~~~~~-------| 
E|--------------------------------| 


___Bm/A____________A________________F#m/A___________Bb_____________ 
 " A   -   wol     a   -   wol      a   -   wol     a   -   wol... " 
e|--------------------------------|--------------------------------| 
B|-7---------------5--------------|-2---------------6--------------| 
G|-7---------------6--------------|-2---------------7--------------| 
D|-9---------------7--------------|-4---------------8--------------| 
A|-0---------------0--------------|-0------------------------------| 
E|--------------------------------|-----------------6--------------| 
                                                    t 

" And then I... " 

___F_(133211)______________________________________________________ 
 " Kissed her...                                        and when I... " 

___Gm_(355333)_____________________________________________________ 
 " kissed her...                                            it's a... " 

___G6/A_(x05430)____________________A_(x07650)_____________________ 
 " wonderful   world    when you're roll -  ing and kissing... "  
___________________________________________________________________ 



___Bm______________Em_______________Bm______________Em_____________ 
 " now,        the paint is peeling now and when the chips are down... " 
e|-----7-------7-------7-7---7-7--|-----7-------7-------7-7---7-7--| 
B|-----7-------7-------8-8---8-8--|-----7-------7-------8-8---8-8--| 
G|-----7-------7-------9-9---9-9--|-----7-------7-------9-9---9-9--| 
D|-----9-------9-------9-9---9-9--|-----9-------9-------9-9---9-9--| 
A|-----9-------9-------7-7---7-7--|-----9-------9-------7-7---7-7--| 
E|-----7-------7------------------|-----7-------7------------------| 


___Bm______________Em_______________Bm______________Em_____________ 
 " now, you kinda lose all feeling now, your head goes round and round..."  


___D#5/G#__________D5/A_____________D#5/A#__________E5/B___________ 
 " round & round & round &  round & round & round & round & round, I'm... " 
e|--------------------------------|--------------------------------| 
B|--------------------------------|--------------------------------| 
G|-6---------------7--------------|-8---------------9--------------| 
D|-6---------------7--------------|-8---------------9--------------| 
A|-4---------------5--------------|-6---------------7--------------| 
E|-4---------------5--------------|-6---------------7--------------| 


___F5/C____________F#5/C#___________G5/D___________________________ 
 " thro - wing  my self  off  this  train... " 
e|--------------------------------|--------------------------------| 
B|--------------------------------|--------------------------------| 
G|-10--------------11-------------|-12-----------------------------| 
D|-10--------------11-------------|-12-----------------------------| 
A|-8---------------9--------------|-10-----------------------------| 
E|-8---------------9--------------|-10-----------------------------| 


___Bm______________Em_______________Bm______________Em_____________ 
" Humdrum days and a-humdrum ways,  humdrum days and a-humdrum ways... " 
e|-----7-------7-------7-7---7-7--|-----7-------7-------7-7---7-7--| 
B|-----7-------7-------8-8---8-8--|-----7-------7-------8-8---8-8--| 
G|-----7-------7-------9-9---9-9--|-----7-------7-------9-9---9-9--| 
D|-----9-------9-------9-9---9-9--|-----9-------9-------9-9---9-9--| 
A|-----9-------9-------7-7---7-7--|-----9-------9-------7-7---7-7--| 
E|-----7-------7------------------|-----7-------7------------------| 


___Emadd9_(x79777)_________________________________________________ 
         " hum         a   drum     days            he's    got... " 

___G6/A_(x05430)____________________________________________________ 
         " Hum         a   drum     ways            oh              boy... " 


Repeat verse until:  

"It's a... " 

___Emadd9_(x79777)__________________G6/A_(x05430)__________________ 
 " wonderful   world    when you're roll -  ing in  dollars... "  
e|-7-----------7------------------|---------0---------------0------| 
B|-7-----------7------------------|---------3---------------3------| 
G|-7-----------7------------------|---------4---------------4------| 
D|-9-----------9------------------|---------5---------------5------| 
A|-7-----------7------------------|---------0---------------0------| 
E|--------------------------------|--------------------------------| 

___G6/A____________________________________________________________ 
 " rol  -  ling in dollars...       rol  -  ling in dollars... " 
e|---------0---------------0------|---------0---------------0------| 
B|---------3---------------3------|---------3---------------3------| 
G|---------4---------------4------|---------4---------------4------| 
D|---------5---------------5------|---------5---------------5------| 
A|---------0---------------0------|---------0---------------0------| 
E|--------------------------------|--------------------------------| 

___G6/A_____________________________D______________________________ 
                                  " now! " 
e|---------0---------------0------|-2------------------------------| 
B|---------3---------------3------|-3------------------------------| 
G|---------4---------------4------|-2------------------------------| 
D|---------5---------------5------|-0------------------------------| 
A|---------0---------------0------|--------------------------------| 
E|--------------------------------|--------------------------------| 
 
  

cifra enviadasem correções
enviado porenviada por:andrsouza
top 5 | 10cc
top rock'n roll
Outras músicas do artista letras do(a) 10cc
Top cifras »Top artistas »
Petaxxon Comunicação Online
Cifras.com.br - Melhor e mais completo site de cifras e tablaturas do Brasil
Mais de 1 milhão de acordes de músicas cadastradas desde 2003
As informações contidas no nosso site são colaborações de seus usuários e podem conter erros, sendo assim, não nos responsabilizamos sobre nenhuma destas.
close
menos
mais
close
Cor dos acordes:

Cor da letra:

 

save
close
close
 
redimensionar