38 Special

38 Special

Like No Other Night
Composição de (Don Barnes/John Bettis/Jeff Carlisi/Jim Vallance)
here's another great song by .38 Special that i was surprised to have not seen tabbed 
anywhere. the intro to Like No Other Night is pretty catchy and actually really easy to 
guitars 1 and 2 are played at the same time, each with palm-muting throughout (they are  
eigth-notes by the way). i'm working on a guitar-pro full version of the song so 
that will be up soon. enjoy! 

guitar #1 
     PM............................................... 

e||--3--------3--------3-----|--3--------3--------3-----| 
B||--1--------1--------1-----|--0--------0--------0-----| 
G||-----0--0-----0--0-----0--|-----0--0-----0--0-----0--| 
D||--------------------------|--------------------------| 
A||--------------------------|--------------------------| 
E||--------------------------|--------------------------| 

guitar #2 
     PM............................................... 

e||--3--------3--------3-----|--3--------3--------3-----| 
B||-----1--------1-----------|-----3--------3-----------| 
G||--------0--------0-----0--|--------0--------0-----0--| 
D||--------------------------|--------------------------| 
A||--------------------------|--------------------------| 
E||--------------------------|--------------------------| 

   PM............................................... 

|--2--------2--------2-----|--2--------2--------2-----| 
|--3--------3--------3-----|--3--------3--------3-----| 
|-----2--2-----2--2-----2--|-----2--2-----2--2-----2--| 
|--------------------------|--------------------------| 
|--------------------------|--------------------------| 
|--------------------------|--------------------------| 

   PM............................................... 

|--2--------2--------2-----|--2--------2--------2-----| 
|-----3--------3-----------|-----3--------3-----------| 
|--------2--------2-----2--|--------2--------2-----2--| 
|--------------------------|--------------------------| 
|--------------------------|--------------------------| 

   PM............................................... 

|--3--------3--------3-----|--3--------3--------3-----| 
|--1--------1--------1-----|--5--------5--------5-----| 
|-----0--0-----0--0-----0--|-----0--0-----0--0-----0--| 
|--------------------------|--------------------------| 
|--------------------------|--------------------------| 
|--------------------------|--------------------------| 

     PM............................................... 

|--3--------3--------3-----|--3--------3--------3-----| 
|-----1--------1-----------|-----3--------3-----------| 
|--------0--------0-----0--|--------0--------0-----0--| 
|--------------------------|--------------------------| 
|--------------------------|--------------------------| 
|--------------------------|--------------------------| 

   PM............................................... 


|--2--------2--------2-----|--2--------2--------2-----| 
|--3--------3--------3-----|--3--------3--------3-----| 
|-----2--2-----2--2-----2--|-----2--2-----2--2-----2--| 
|--------------------------|--------------------------| 
|--------------------------|--------------------------| 
|--------------------------|--------------------------| 

   PM............................................... 

|--2--------2--------2-----|--2--------2--------2-----| 
|-----3--------3-----------|-----3--------3-----------| 
|--------2--------2-----2--|--------2--------2-----2--| 
|--------------------------|--------------------------| 
|--------------------------|--------------------------| 


play this up until the pre-chorus 

~BRAD DAMIAN LEE~

Enviado por: José Raimundo P

Corrigido por: sem correções