38 Special

38 Special

Rockin' Into The Night
Composição de (Jim Peterik/Gary Smith/Frankie Sullivan)
Tuning: Standard 
Transcribed by Soch Hean 

Intro Riff: 
|---------------------------------------| 
|---------------------------------------| 
|----------3--3--3--5-------------------| 
|-5=\------3--3--3--5-------------------| 
|-5=\------1--1--1--3-----3-------------| 
|-3=\------------------------0--1--2----| (x3) 

|---------------------------------------| 
|---------------------------------------| 
|----------3--3--3--5-------3-----5--3--| 
|-5=\------3--3--3--5-------3--3--5--3--| 
|-5=\------1--1--1--3-------1--3--3--1--| 
|-3=\--------------------------1--------| 


Verse: (0:30) 
|---------------------------------------------------------| 
|---------------------------------------------------------| 
|--------------7--7--7--7--9--9--9--9--5--5--5--5---------| 
|-5--5--5--5---7--7--7--7--9--9--9--9--5--5--5--5---------| 
|-5--5--5--5---5--5--5--5--7--7--7--7--3--3--3--3---------| 
|-3--3--3--3----------------------------------------------| 

|---------------------------------------------------------| 
|---------------------------------------------------------| 
|--------------7--7--7--7--9--9--9--9--4--4--4--4---------| 
|-5--5--5--5---7--7--7--7--9--9--9--9--4--4--4--4---------| 
|-5--5--5--5---5--5--5--5--7--7--7--7--2--2--2--2---------| 
|-3--3--3--3----------------------------------------------| 


Bridge: (0:46) 
|-0-0---0----------3-----2-2---2-----3-3------1----------| 
|-1-1---1----------3-----3-3---3-----3-3------1----------| 
|-0-0---0----------0-----2-2---2-----0-0------2----------| 
|-2-2---2----2-2---------0-0---0-----0-0------3----------| 
|-3-3---3----2-2---------------------2-2------3----------| 
|------------0-0---------------------3-3------1----------| 

|-0-0---0----------3-------------------------------------| 
|-1-1---1----------3-------------------------------------| 
|-0-0---0----------0-----------------3-----5--3----------| 
|-2-2---2----2-2---------3--3--3--3--3--3--5--3----------| 
|-3-3---3----2-2---------3--3--3--3--1--3--3--1----------| 
|------------0-0---------1--1--1--1-----1----------------| 


Chorus: (1:01) 
|---------------------------------------| 
|---------------------------------------| 
|----------3--3--3--5-------------------| 
|-5=\------3--3--3--5-------------------| 
|-5=\------1--1--1--3-----3-------------| 
|-3=\------------------------0--1--2----| 




|---------------------------------------| 
|---------------------------------------| 
|----------3--3--3--5-------3-----5--3--| 
|-5=\------3--3--3--5-------3--3--5--3--| 
|-5=\------1--1--1--3-------1--3--3--1--| 
|-3=\--------------------------1--------| 


Verse 2: (1:16) 
|---------------------------------------------------------| 
|---------------------------------------------------------| 
|--------------7--7--7--7--9--9--9--9--5--5--5--5---------| 
|-5--5--5--5---7--7--7--7--9--9--9--9--5--5--5--5---------| 
|-5--5--5--5---5--5--5--5--7--7--7--7--3--3--3--3---------| 
|-3--3--3--3----------------------------------------------| 

|---------------------------------------------------------| 
|---------------------------------------------------------| 
|--------------7--7--7--7--9--9--9--9--4--4--4--4---------| 
|-5--5--5--5---7--7--7--7--9--9--9--9--4--4--4--4---------| 
|-5--5--5--5---5--5--5--5--7--7--7--7--2--2--2--2---------| 
|-3--3--3--3----------------------------------------------| 


Bridge: (1:31) 
|-0-0---0----------3-----2-2---2-----3-3------1----| 
|-1-1---1----------3-----3-3---3-----3-3------1----| 
|-0-0---0----------0-----2-2---2-----0-0------2----| 
|-2-2---2----2-2---------0-0---0-----0-0------3----| 
|-3-3---3----2-2---------------------2-2------3----| 
|------------0-0---------------------3-3------1----| 

|-0-0---0----------3------------------------------| 
|-1-1---1----------3------------------------------| 
|-0-0---0----------0-----------------3-----5--3---| 
|-2-2---2----2-2---------3--3--3--3--3--3--5--3---| 
|-3-3---3----2-2---------3--3--3--3--1--3--3--1---| 
|------------0-0---------1--1--1--1-----1---------| 


Chorus: (1:47) 
|--------------------------------------| 
|--------------------------------------| 
|----------3--3--3--5------------------| 
|-5=\------3--3--3--5------------------| 
|-5=\------1--1--1--3------3-----------| 
|-3=\------------------------0--1--2---| 

|----------------------------------| 
|----------------------------------| 
|----------3--3--3--5-----7---10---| 
|-5=\------3--3--3--5-----7---10---| 
|-5=\------1--1--1--3-----5----8---| 
|-3=\------------------------------| 


Guitar Solo: (2:03) 
|--------------------------3-------------------------------| 
|-----------------------------6s8~~\-------8-7-------------| 
|-------3---3-5b7rp3---3h4---------------7-----7------7~\--| 
|-5p3-5---5----------5-----------------x----------7h9------| 
|----------------------------------------------------------| 
|----------------------------------------------------------| 

|------------------------------------------------------15-| 
|------------------------------------------------------15-| 
|------------------7-------9-0-8-7-5~-----------12--------| 
|-----5----7-5-7s9---7--------------------12h14----14-----| 
|-5h7---7-------------------------------------------------| 
|---------------------------------------------------------| 






|------------------------------------------------------| 
|---------------12--13-14-15~--12-15--15b17~----17p15--| 
|-14b16---12-------------------------------------------| 
|------------14----------------------------------------| 
|------------------------------------------------------| 
|------------------------------------------------------| 

|-17b19---17-15-14----------| 
|------------------17b19~---| 
|---------------------------| 
|---------------------------| 
|---------------------------| 
|---------------------------| 


Bridge: (2:20) 
|-0-0---0----------3-----2-2---2-----3-3------1----| 
|-1-1---1----------3-----3-3---3-----3-3------1----| 
|-0-0---0----------0-----2-2---2-----0-0------2----| 
|-2-2---2----2-2---------0-0---0-----0-0------3----| 
|-3-3---3----2-2---------------------2-2------3----| 
|------------0-0---------------------3-3------1----| 

|-0-0---0----------3------------------------------| 
|-1-1---1----------3------------------------------| 
|-0-0---0----------0-----------------3-----5--3---| 
|-2-2---2----2-2---------3--3--3--3--3--3--5--3---| 
|-3-3---3----2-2---------3--3--3--3--1--3--3--1---| 
|------------0-0---------1--1--1--1-----1---------| 

Chorus/Outro: (2:36) 
|-------------------------------------------------------| 
|-------------------------------------------------------| 
|-------------------------------------------------------| 
|-5=\---------------------------------------------------| 
|-5=\--------------------------------------3------------| 
|-3=\-----------------------------------------0--1--2---| 

|-------------------------------------------------| 
|-------------------------------------------------| 
|----------------3-3-3--5-------------------------| 
|-5-5\-----5\----3-3-3--5-------------------------| 
|-5-5\-----5\----1-1-1--3-------3-------1---------| 
|-3-3\-----3\----------------------0-1----1-2-----| 

|----------------------------------------------| 
|----------------------------------------------| 
|------------3--3--3--5------------------------| 
|-5----------3--3--3--5------------------------| 
|-5----------1--1--1--3----------3-------------| 
|-3---------------------------------0--1--2----| 

(2:58) 
|-------------------------------------------------| 
|-------------------------------------------------| 
|----------------3-3-3--5-------------------------| 
|-5-5\-----5\----3-3-3--5-------------------------| 
|-5-5\-----5\----1-1-1--3-------3-------1---------| 
|-3-3\-----3\----------------------0-1----1-2-----| 

|---------------------------------------------------------| 
|---------------------------------------------------------| 
|------------3--3--3--5-----------------------------------| 
|-5-----5----3--3--3--5-----------------------------------| 
|-5-----5----1--1--1--3-------3---------------------------| 
|-3-----3------------------------0--1--2------------------| 

(3:13) 
|------------------------------------------| 
|------------------------------------------| 
|-------------3--3--3--5-------3-----5--3--| 
|-5------5----3--3--3--5-------3--3--5--3--| 
|-5------5----1--1--1--3-------1--3--3--1--| 
|-3------3------------------------1--------| 


|---------------------------------------------------------| 
|---------------------------------------------------------| 
|------------3--3--3--5-----------------------------------| 
|-5-----5----3--3--3--5-----------------------------------| 
|-5-----5----1--1--1--3-------3---------------------------| 
|-3-----3------------------------0--1--2------------------| 

|---------------------------------------------------------| 
|---------------------------------------------------------| 
|------------3--3--3--5-----------------------------------| 
|-5-----5----3--3--3--5-----------------------------------| 
|-5-----5----1--1--1--3-------3-------1-------------------| 
|-3-----3------------------------0-1----1-2---------------| 

-Fade Out-

Enviado por: José Raimundo P

Corrigido por: sem correções