38 Special

38 Special

Teacher Teacher
Composição de (Jim Vallance)
artist-38 special 
song-teacher, teacher off the movie "teachers" 
tabbed by-smellslikefeet1 
album-best of 38 special 1987 
s-slide 
b-3/4bend up 
h-hammeron 

intro 
|--------------------------| 
|--------------------------| 
|-----0-------0------------| 
|-------0-------0----------| do this four times 
|-3--------5---------------| 
|-1-1------3-3-------------| 

verse                           
|------------------------------------|------------------3---3---3---0---3--| 
|------------------------------------|------------------3---3---3---3---3--| 
|-----x-x-5-5-x-x-----x-x------------|-----x-x-5-5-x-x--0---0---0---3---0--| 
|-3-3-x-x-5-5-x-x-5-5-x-x-7-7--------|-3-3-x-x-5-5-x-x----0---0---0---0----| 
|-3-3-x-x-3-3-x-x-5-5-x-x-7-7--3-2-0-|-3-3-x-x-3-3-x-x----2---2---2---2----| 
|-1-1-x-x-----x-x-3-3-x-x-5-5--------|-1-1-x-x-----x-x----3---3---3---3----| 
on the last part you can usually get away with playing an open G chord 
play verse twice 


chorus 
teacher teacher can you teach me 
|-----------------------------| 
|-----------------------------| 
|-5--5--------3--3------------| 
|-5--5--3--3--3--3--5--5------|x4 
|-3--3--3--3--1--1--5--5------| 
|-------1--1--------3--3------| 

play verse again 
paly chorus again 

solo 
|-2-8-8------8-8---8-8---8-8----8-8----11-8---8-8---8-8---8---8---8-11h8--| 
|-2s8-8------8-8---8-8---8-8----8-8----8--8---8-8---8-8---8---8---8-------| 
|---------10b----10b---10b---10b----10b-----10b---10b---10b-----10b-------| 
|-------------------------------------------------------------------------| 
|-------------------------------------------------------------------------| 
|-------------------------------------------------------------------------| 

|11-11-8--11-11-8--11-11-8--11-11-8--11-11-8--11-11-8--11-11-8--11-11-8--| 
|-8--8-8---8--8-8---8--8-8---8--8-8---8--8-8---8--8-8---8--8-8---8--8-8--| 
|------------------------------------------------------------------------| 
|------------------------------------------------------------------------| 
|------------------------------------------------------------------------| 
|------------------------------------------------------------------------| 

|-15--12-8---------| 
|------------------| 
|------------------| 
|------------7-7-7-| 
|------------7-7-7-| 
|------------5-5-5-| play solo over chorus chords 

bridge 


|----------------------------|----------------------------------| 
|----------------------------|----------------------------------| 
|----------------------------|-7-7-7-7--5-5-5-5--3-3-3-3--------| 
|-7-7-7-7--5-5-5-5--3-3-3-3--|-7-7-7-7--5-5-5-5--3-3-3-3--------| 
|-7-7-7-7--5-5-5-5--3-3-3-3--|-5-5-5-5--3-3-3-3--1-1-1-1--------| 
|-5-5-5-5--3-3-3-3--1-1-1-1--|----------------------------------| 

|----------------------------| 
|----------------------------| 
|----------------------------| 
|--7-7-7-7--5-5-5-5--3-3-3-3-| 
|--7-7-7-7--5-5-5-5--3-3-3-3-| teacher teacher can you teach me! 
|--5-5-5-5--3-3-3-3--1-1-1-1-| 

play chorus chords again 
play intro riff  then end 




lyrics 
verse 
Just when I thought I finally learned my lesson well 
There was more to this than meets the eye 
And for all the things you taught me, only time will tell 
If I'll be able to survive, oh yeah 

chorus 

Teacher, teacher, can you teach me 
Can you tell me all I need to know 
Teacher, teacher, can you reach me 
Or will I fall when you let me go, oh no 

verse 
Am I ready for the real world, will I pass the test 
You know it's a jungle out there 
Ain't nothin gonna stop me, I won't be second best 
But the joke's on those who believe the system's fair, oh yeah  

chorus 
Teacher, teacher, can you teach me 
Can you tell me if I'm right or wrong 
Teacher, teacher, can you reach me 
I wanna know what's goin on, oh yeah 

bridge 
So the years go on and on, but nothing's lost or won 
And what you learned is soon forgotten 
They take the best years of your life 
Try to tell you wrong from right 
But you walk away with nothing, oh oh 

chorus 
Teacher, teacher, can you teach me 
Can you tell me all I need to know 
Teacher, teacher, can you reach me 
Or will I fall when you let me go 

chorus 
Teacher, teacher, can you teach me 
Can you tell me if I'm right or wrong 
Teacher, teacher, can you reach me 
I wanna know what's goin on, oh 

chorus 
Teacher, teacher, can you teach me 
Teacher, teacher, can you reach me 
Teacher, teacher, can you teach me 
Teacher, teacher, ooh yeah 
Teacher, teacher 
Teacher, teacher

Enviado por: José Raimundo P

Corrigido por: sem correções