Cifras e Tablaturas
Cifras Cancelar Versão de Impressão
cifras

A Great Big Pile Of Leaves - Egocentrism

fixar na tela  
Exibindo: vídeo-aula ver clipes redimensionar

Tom:

  
Guitar 1

Intro/Verse 

e|--7\----|-7\---------------|-/7------|---------| 
B|------7-|-------7b--4---4--|-------7-|-9\7---4-| 
G|--------|-------------6----|---------|---------| x2 
D|--------|------------------|---------|---------| 
A|--------|------------------|---------|---------| 
E|--------|------------------|---------|---------| 


Pre-Chorus 

e|-2---2-4-2---2---|-2---2-4-2---2---|-2---2-4-2---2---|-2---2-------| 
B|---0-------0---0-|---0-------0---0-|---0-------0---0-|---0---0-----| 
G|-----------------|-----------------|-----------------|-------------| 
D|-----------------|-----------------|-----------------|-------------| 
A|-----------------|-----------------|-----------------|-------------| 
E|-----------------|-----------------|-----------------|-------------| 


verse 2 

e|--------------------------|-----------------------|--------------------------|-------------| 
B|--------------------------|-----------------------|--------------------------|-------------| 
G|--------------------------|-----------------------|--------------------------|-------------| x2 
D|-/13\11-------------------|-/13\11----------------|-/13\11-------------------|-------------| 
A|--------14-11-14-11-14-11-|--------14-11-14-11----|--------14-11-14-11-14-11-|-9-11-9------| 
E|--------------------------|-------------------14--|--------------------------|-------11----| 


Pre-Chorus 2 

e|-14----14-16-14----14----|-14----14-16-14----14----| 
B|----12----------12----12-|----12----------12----12-| 
G|-------------------------|-------------------------| x2 
D|-------------------------|-------------------------| 
A|-------------------------|-------------------------| 
E|-------------------------|-------------------------| 

e|-14---14-16-14----14----|-14----14-16-14----14----|-14----14-16-14----14----|-14----14-------| 
B|---------------12----12-|----12----------12----12-|----12----------12----12-|----12----12----| 
G|------------------------|-------------------------|-------------------------|----------------| 
D|------------------------|-------------------------|-------------------------|----------------| 
A|------------------------|-------------------------|-------------------------|----------------| 
E|------------------------|-------------------------|-------------------------|----------------| 


Verse 

(Guitar 2) 

e|--7-7---------|--7-7---------|--7-7---------|------------------| 
B|--9-9---7-7-7-|--9-9---7-7-7-|--9-9---7-7-7-|--7-7-------------| 
G|--8-8---8-8-8-|--8-8---8-8-8-|--8-8---8-8-8-|--8-8---------8-8-| 
D|--9-9---9-9-9-|--9-9---9-9-9-|--9-9---9-9-9-|--9-9---9-----9-9-| 
A|--7-7---9-9-9-|--7-7---9-9-9-|--7-7---9-9-9-|--7-7---7h9---9-9-| 
E|--------7-7-7-|--------7-7-7-|--------7-7-7-|--------7-----7-7-| 

************************************ 
| h   Hammer-on 
| b   Bend 
| /   Slide up 
| \   Slide down 
************************************ 
  

top 5 | a great big pile of leaves
top rock alternativo
Outras músicas do artista letras do(a) A Great Big Pile Of Leaves
Top cifras »Top artistas »
Petaxxon Comunicação Online
Cifras.com.br - Melhor e mais completo site de cifras e tablaturas do Brasil
Mais de 1 milhão de acordes de músicas cadastradas desde 2003
As informações contidas no nosso site são colaborações de seus usuários e podem conter erros, sendo assim, não nos responsabilizamos sobre nenhuma destas.
close
menos
mais
close
Cor dos acordes:

Cor da letra:

 

save
close
close
 
redimensionar