Cifras e Tablaturas
AC/DC

AC/DC

Back in black - Live

Cifras Cancelar Versão de Impressão

AC/DC - Back in black - Live

Tom: E

  			  S S E S S E S S E S S E   S S E S S E S S E S S E   E E E S S E E E S S 
|-0-----0-----0-----0-----|-0-----0-----0-----0-----|---------------------| 
|-0-----0-----0-----0-----|-0-----0-----0-----0-----|-------3-3-3---------| 
|-0-----0-----0-----0-----|-0-----0-----0-----0-----|-------2-2-2-----2-2-| 
|-0-----0-----0-----0-----|-0-----0-----0-----0-----|-2-----0-0-0-----2-2-| 
|-0-----0-----0-----0-----|-0-----0-----0-----0-----|-2---------------0-0-| 
|-0-----0-----0-----0-----|-0-----0-----0-----0-----|-0-------------------| 
 
 
  E E Q  S S S S S E S   E E E S S E E E S S   E E S E S S S S S S S S S 
|----------3-----------|---------------------|----------------------------| 
|------------5-3-------|-------3-3-3---------|----------------------------| 
|-2--------------4-2-0-|-------2-2-2-----2-2-|-2--------------------------| 
|-2--------------------|-2-----0-0-0-----2-2-|-2--------------------------| 
|-0--------------------|-2---------------0-0-|-0---2---2-0---2-1---2-2----| 
|----------------------|-0-------------------|-------4---------------6----| 
 
 
  E E E S S E E E S S   E E Q  S S S S S E S   E E E S S E E E S S 
|---------------------|----------3-----------|---------------------| 
|-------3-3-3---------|------------5-3-------|-------3-3-3---------| 
|-------2-2-2-----2-2-|-2--------------4-2-0-|-------2-2-2-----2-2-| 
|-2-----0-0-0-----2-2-|-2--------------------|-2-----0-0-0-----2-2-| 
|-2---------------0-0-|-0--------------------|-2---------------0-0-| 
|-0-------------------|----------------------|-0-------------------| 
 
 
  E E S E S S S S S S S S S   E E E S S E E E S S   E E Q  S S S S S E S 
|---------------------------|---------------------|----------3------------| 
|---------------------------|-------3-3-3---------|------------5-3--------| 
|-2-------------------------|-------2-2-2-----2-2-|-2--------------4-2-0--| 
|-2-------------------------|-2-----0-0-0-----2-2-|-2---------------------| 
|-0---2---2-0---2-1---2-2---|-2---------------0-0-|-0---------------------| 
|-------4---------------6---|-0-------------------|-----------------------| 
 
 
  E E E S S E E E S S   E E S E S S S S S S S S S   E E E S S E E E S S 
|---------------------|---------------------------|---------------------| 
|-------3-3-3---------|---------------------------|-------3-3-3---------| 
|-------2-2-2-----2-2-|-2-------------------------|-------2-2-2-----2-2-| 
|-2-----0-0-0-----2-2-|-2-------------------------|-2-----0-0-0-----2-2-| 
|-2---------------0-0-|-0---2---2-0---2-1---2-2---|-2---------------0-0-| 
|-0-------------------|-------4---------------6---|-0-------------------| 
 
 
  E E Q  S S S S S E S   E E E S S E E E S S   E E S E S S S S S S S S S 
|----------3-----------|---------------------|----------------------------| 
|------------5-3-------|-------3-3-3---------|----------------------------| 
|-2--------------4-2-0-|-------2-2-2-----2-2-|-2--------------------------| 
|-2--------------------|-2-----0-0-0-----2-2-|-2--------------------------| 
|-0--------------------|-2---------------0-0-|-0---2---2-0---2-1---2-2----| 
|----------------------|-0-------------------|-------4---------------6----| 
 
 
  E E +S  E. E. S +E  E   +E  E +S  E. E. S +E  E 
|-----------------------|-------------------------| 
|-----------------------|-------------------------| 
|---2-(2)----4--4-(4)-4-|-(4)-2-(2)----4--4-(4)-4-| 
|---2-(2)-2--4--4-(4)-4-|-(4)-2-(2)-2--4--4-(4)-4-| 
|---0-(0)-2--2--0-(0)---|-----0-(0)-2--2--0-(0)---| 
|---------0-----------7-|-(7)-------0-----------7-| 
 
 
  +E  E +S  E. E. S +E  E   +E  E +S  E. E. S +E  E 
|-----3-(3)---------------|-----3-(3)---------------| 
|-----3-(3)-3-------------|-----3-(3)-3-------------| 
|-(4)-0-(0)-2--2--------2-|-(2)-0-(0)-2--2--------2-| 
|-(4)-0-(0)-0--2--------2-|-(2)-0-(0)-0--2--------2-| 
|--------------0--------0-|-(0)----------0--------0-| 
|-(7)-3-(3)-------3-(3)---|-----3-(3)-------3-(3)---| 
 
 
  +E  E +S  E. E. S +E  E   +E  E +S  E. E. S +E  E 
|-------------------------|-------------------------| 
|-------------------------|-------------------------| 
|-(2)-2-(2)----4--4-(4)-4-|-(4)-2-(2)----4--4-(4)-4-| 
|-(2)-2-(2)-2--4--4-(4)-4-|-(4)-2-(2)-2--4--4-(4)-4-| 
|-(0)-0-(0)-2--2--0-(0)---|-----0-(0)-2--2--0-(0)---| 
|-----------0-----------7-|-(7)-------0-----------7-| 
 
 
  E. S +E  E +S  E. E S S   E. S +E  E +H 
|-3--3-(3)-3-(3)-3--3-----|-------------------| 
|-3--3-(3)-3-(3)-3--3-3-3-|-3--3-(3)-3-(3)----| 
|-0--0-(0)-0-(0)-0--0-2-2-|-2--2-(2)-2-(2)----| 
|-0--0-(0)-0-(0)-0--0-0-0-|-0--0-(0)-0-(0)----| 
|-------------------------|-------------------| 
|-3--3-(3)-3-(3)-3--3-----|-------------------| 
 
 
  E E E S S E E E S S   E E Q  S S S S S E S   E E E S S E E E S S 
|---------------------|----------3-----------|---------------------| 
|-------3-3-3---------|------------5-3-------|-------3-3-3---------| 
|-------2-2-2-----2-2-|-2--------------4-2-0-|-------2-2-2-----2-2-| 
|-2-----0-0-0-----2-2-|-2--------------------|-2-----0-0-0-----2-2-| 
|-2---------------0-0-|-0--------------------|-2---------------0-0-| 
|-0-------------------|----------------------|-0-------------------| 
 
 
  E E S E S S S S S S S S S   E E E S S E E E S S   E E Q  S S S S S E S 
|---------------------------|---------------------|----------3------------| 
|---------------------------|-------3-3-3---------|------------5-3--------| 
|-2-------------------------|-------2-2-2-----2-2-|-2--------------4-2-0--| 
|-2-------------------------|-2-----0-0-0-----2-2-|-2---------------------| 
|-0---2---2-0---2-1---2-2---|-2---------------0-0-|-0---------------------| 
|-------4---------------6---|-0-------------------|-----------------------| 
 
 
  E E E S S E E E S S   E E S E S S S S S S S S S   E E +S  E. E. S +E  E 
|---------------------|---------------------------|-----------------------| 
|-------3-3-3---------|---------------------------|-----------------------| 
|-------2-2-2-----2-2-|-2-------------------------|---2-(2)----4--4-(4)-4-| 
|-2-----0-0-0-----2-2-|-2-------------------------|---2-(2)-2--4--4-(4)-4-| 
|-2---------------0-0-|-0---2---2-0---2-1---2-2---|---0-(0)-2--2--0-(0)---| 
|-0-------------------|-------4---------------6---|---------0-----------7-| 
 
 
  +E  E +S  E. E. S +E  E   +E  E +S  E. E. S +E  E 
|-------------------------|-----3-(3)---------------| 
|-------------------------|-----3-(3)-3-------------| 
|-(4)-2-(2)----4--4-(4)-4-|-(4)-0-(0)-2--2--------2-| 
|-(4)-2-(2)-2--4--4-(4)-4-|-(4)-0-(0)-0--2--------2-| 
|-----0-(0)-2--2--0-(0)---|--------------0--------0-| 
|-(7)-------0-----------7-|-(7)-3-(3)-------3-(3)---| 
 
 
  +E  E +S  E. E. S +E  E   +E  E +S  E. E. S +E  E 
|-----3-(3)---------------|-------------------------| 
|-----3-(3)-3-------------|-------------------------| 
|-(2)-0-(0)-2--2--------2-|-(2)-2-(2)----4--4-(4)-4-| 
|-(2)-0-(0)-0--2--------2-|-(2)-2-(2)-2--4--4-(4)-4-| 
|-(0)----------0--------0-|-(0)-0-(0)-2--2--0-(0)---| 
|-----3-(3)-------3-(3)---|-----------0-----------7-| 
 
 
  Gtr I 
  +E  E +S  E. E. S +E  E   E. S +E  E +S  E. E S S 
|-------------------------|-3--3-(3)-3-(3)-3--3-----| 
|-------------------------|-3--3-(3)-3-(3)-3--3-3-3-| 
|-(4)-2-(2)----4--4-(4)-4-|-0--0-(0)-0-(0)-0--0-2-2-| 
|-(4)-2-(2)-2--4--4-(4)-4-|-0--0-(0)-0-(0)-0--0-0-0-| 
|-----0-(0)-2--2--0-(0)---|-------------------------| 
|-(7)-------0-----------7-|-3--3-(3)-3-(3)-3--3-----| 
| 
| Gtr II 
| +E  E +S  E. E. S +E  E   E. S +E  E +S  E. E S S 
|-------------------------|-3--3-(3)-3-(3)-3--3-----| 
|-------------------------|-3--3-(3)-3-(3)-3--3-3-3-| 
|-(4)-2-(2)----4--4-(4)-4-|-0--0-(0)-0-(0)-0--0-2-2-| 
|-(4)-2-(2)-2--4--4-(4)-4-|-0--0-(0)-0-(0)-0--0-0-0-| 
|-----0-(0)-2--2--0-(0)---|-------------------------| 
|-(7)-------0-----------7-|-3--3-(3)-3-(3)-3--3-----| 
 
 
  E. S +E  E +H       S S E +Q      S S E +Q 
|-------------------|------------------------------| 
|-3--3-(3)-3-(3)----|------------------------------| 
|-2--2-(2)-2-(2)----|------------------------------| 
|-0--0-(0)-0-(0)----|-----2-(2)---------0-(0)------| 
|-------------------|------------------------------| 
|-------------------|-0-------------0--------------| 
| 
| E. S +E  E +H       Q      E  S S Q      E  S S 
|-------------------|------------------------------| 
|-3--3-(3)-3-(3)----|------------------------------| 
|-2--2-(2)-2-(2)----|------------------------------| 
|-0--0-(0)-0-(0)----|-2---------0-0-0--------------| 
|-------------------|-2-----------------------4-4--| 
|-------------------|-0---------0-0-0---------0-0--| 
 
 
  S S E +Q      S S S S S S S S   S S E +Q      S S E +Q 
|-------------------------------|-----------------------------| 
|-------------------------------|-----------------------------| 
|-------------------0-2-2-0-2---|-----------------------------| 
|-----------------2-----------2-|-----2-(2)---------0-(0)-----| 
|-----4-(4)---------------------|-----------------------------| 
|-0-----------------------------|-0-------------0-------------| 
| 
| Q      E  S S E   S S E   S S   Q      E  S S Q      E  S S 
|-------------------------------|-----------------------------| 
|-------------------------------|-----------------------------| 
|-------------------------------|-----------------------------| 
|-----------2-2-2---2-2-2---2-2-|-2---------0-0-0-------------| 
|-4---------2-2-2---2-2-2---2-2-|-2-----------------------4-4-| 
|-0---------0-0-0---0-0-0---0-0-|-0---------0-0-0---------0-0-| 
 
 
  S S E +Q    S  S S S  S  S S S 
|--------------------------------| 
|----------------3---3-----3---3-| 
|----------------4---4-----4-----| 
|----------------5---5-----5-----| 
|-----4-(4)----------------------| 
|-0------------------------------| 
| 
| Q      E  E E.     S +E    E 
|--------------------------------| 
|--------------------------------| 
|-------------2--------------2---| 
|-------------2------2-(2)---2---| 
|-4---------2-0------2-(2)---0---| 
|-0---------0--------0-(0)-------| 
 
 
  H        S S S S Q       S S S  S S S S S Q     S S S S 
|------------3-----------|---3-5--6-5-3-------------3---3-| 
|-3--------5---3---5-----|-5-----10-8---5---5---------5---| 
|------------------------|--------------------------------| 
|------------------------|--------------------------------| 
|----------------5-------|--------------------------------| 
|----------------5-------|--------------------------------| 
| 
| Q  E S S Q       E S S   Q        E   S S E S S E   S S 
|------------------------|--------------------------------| 
|------------------------|--------------------------------| 
|------------------------|--------------------------------| 
|-2----0-0-0-------------|--------------2-2-2-2-2-2---2-2-| 
|-2------------------4-4-|-4------------2-2-2-2-2-2---2-2-| 
|-0----0-0-0---------0-0-|-0------------0-0-0-0-0-0---0-0-| 
 
 
  E  S  S  +Q       +S   S  S S  Q 
|-5-10------------------10---------------| 
|------10-(10)-----(10)----10-8-10-------| 
|----------------------------------------| 
|----------------------------------------| 
|----------------------------------------| 
|----------------------------------------| 
| 
| Q         E  S S   Q           E S S 
|----------------------------------------| 
|----------------------------------------| 
|----------------------------------------| 
|-2------------0-0---0-------------------| 
|-2--------------------------------4-4---| 
|-0------------0-0---0-------------0-0---| 
 
 
  S  S  S  S  S  S  S  S  E   S  S  +E.    S 
|----------------------------10--------------| 
|------------------------10-----10-(10)------| 
|---12----12-12----14-12---------------------| 
|---12-14-14----14---------------------------| 
|--------------------------------------------| 
|-----------------------------------------10-| 
| 
| Q           E     E     E.     S  +E  E 
|--------------------------------------------| 
|--------------------------------------------| 
|-------------------------2-------------2----| 
|-------------------------2------2--(2)-2----| 
|-4-----------------2-----0------2--(2)-0----| 
|-0-----------------0------------0--(0)------| 
 
 
  S  S  S  S  S  E.      S  S  S  S  S  S  E 
|------12-12-10-10------12-10-12-10-------------| 
|---12---------------------------12-10-12-10----| 
|--------------------------------------12-------| 
|-----------------------------------------------| 
|-----------------------------------------------| 
|-----------------------------------------------| 
| 
| Q           E     S S  Q           E     S S 
|-----------------------------------------------| 
|-----------------------------------------------| 
|-----------------------------------------------| 
|-2-----------------0-0--0----------------------| 
|-2----------------------------------------4-4--| 
|-0-----------------0-0--0-----------------0-0--| 
 
 
   S  E  S  S  S  S S S  E.      +S   S  S  S 
|-10----15------------------------------------| 
|----10----------10---8-10------(10)----------| 
|----------14-12----9-------------------------| 
|------------------------------------12-13-14-| 
|---------------------------------------------| 
|---------------------------------------------| 
| 
|  Q        E     S S E     S S   E      S  S 
|---------------------------------------------| 
|---------------------------------------------| 
|---------------------------------------------| 
|-----------------2-2-2-----2-2---2------2--2-| 
|--4--------------2-2-2-----2-2---2------2--2-| 
|--0--------------0-0-0-----0-0---0------0--0-| 
 
 
   S  S  S  S  S  E    S  S S  S S +E  E      S  E.  +Q     S   S  S  S  Q 
|---------------------10-------------------|----10--(10)---12--10---------------| 
|-------14-------10------10-8-10-----------|-------------------12-10-12---------| 
|-12----14----12---------------9-9-(9)-----|-------------------------12---------| 
|-12-14----14------------------------------|----------------------------14------| 
|------------------------------------------|------------------------------------| 
|------------------------------------------|-10---------------------------------| 
| 
|  Q           E    S  S  Q         E  S S    Q       E  E  E.        S +E  E 
|------------------------------------------|------------------------------------| 
|------------------------------------------|------------------------------------| 
|------------------------------------------|----------------2---------------2---| 
|--2----------------0--0--0----------------|----------------2---------2-(2)-2---| 
|--2-----------------------------------4-4-|--4----------2--0---------2-(2)-0---| 
|--0----------------0--0--0------------0-0-|--0----------0------------0-(0)-----| 
 
 
   S  S  S S +Q      S S S S +E  E 
|--------------------------0-(0)-----| 
|----------5-(5)-----5-5-3-3-(3)-----| 
|----------9-(9)-----4-4-------------| 
|----14-12-9-(9)---------------------| 
|-14---------------------------------| 
|------------------------------------| 
| 
|  Q          E  S S Q        E  S S 
|------------------------------------| 
|------------------------------------| 
|------------------------------------| 
|--2-------------0-0-0---------------| 
|--2-----------------------------4-4-| 
|--0-------------0-0-0-----------0-0-| 
 
 
  S S S S +E  S S S S  S  S  +E   E     S S S S +Q      S S S S +Q 
|-0---------------4-7-12-10-(10)------|---------------------------------| 
|-2---5-5-(5)-------------------------|-------5-(5)-----5-----5-(5)-----| 
|---4-6-6-(6)---6---------------------|-9-9-7-----------7-6-7-7-(7)-----| 
|-------------------------------------|---------------------------------| 
|--------------------------------10---|---------------------------------| 
|-------------------------------------|---------------------------------| 
| 
| Q        E  S S E    S  S   E   S S   Q        E  S S Q        E  S S 
|-------------------------------------|---------------------------------| 
|-------------------------------------|---------------------------------| 
|-------------------------------------|---------------------------------| 
|-------------2-2-2----2--2---2---2-2-|-2-----------0-0-0---------------| 
|-4-----------2-2-2----2--2---2---2-2-|-2---------------------------4-4-| 
|-0-----------0-0-0----0--0---0---0-0-|-0-----------0-0-0-----------0-0-| 
 
 
  S  S S S +E  E S   E.    +E.    S   E E +S  E. E. S +E  E 
|-------------------10----(10)---10-|-----------------------| 
|-5------5-(5)------10----(10)------|-----------------------| 
|-6--4-4-6-(6)----------------------|---2-(2)----4--4-(4)-4-| 
|--------------5--------------------|---2-(2)-2--4--4-(4)-4-| 
|-----------------------------------|---0-(0)-2--2--0-(0)---| 
|-----------------------------------|---------0-----------7-| 
| 
| Q.           E E.     S  +E  E      E E +S  E. E. S +E  E 
|-----------------------------------|-----------------------| 
|------------------------------3----|-----------------------| 
|----------------2-------------2----|---2-(2)----4--4-(4)-4-| 
|--------------2-2------2--(2)-0----|---2-(2)-2--4--4-(4)-4-| 
|-4------------2-0------2--(2)------|---0-(0)-2--2--0-(0)---| 
|-0------------0--------0--(0)------|---------0-----------7-| 
 
 
  +E  E +S  E. E. S +E  E   +E  E +S  E. E. S +E  E 
|-------------------------|-----3-(3)---------------| 
|-------------------------|-----3-(3)-3-------------| 
|-(4)-2-(2)----4--4-(4)-4-|-(4)-0-(0)-2--2--------2-| 
|-(4)-2-(2)-2--4--4-(4)-4-|-(4)-0-(0)-0--2--------2-| 
|-----0-(0)-2--2--0-(0)---|--------------0--------0-| 
|-(7)-------0-----------7-|-(7)-3-(3)-------3-(3)---| 
| 
| +E  E +S  E. E. S +E  E   +E  E +S  E. E. S +E  E 
|-------------------------|-----3-(3)---------------| 
|-------------------------|-----3-(3)-3-------------| 
|-(4)-2-(2)----4--4-(4)-4-|-(4)-0-(0)-2--2--------2-| 
|-(4)-2-(2)-2--4--4-(4)-4-|-(4)-0-(0)-0--2--------2-| 
|-----0-(0)-2--2--0-(0)---|--------------0--------0-| 
|-(7)-------0-----------7-|-(7)-3-(3)-------3-(3)---| 
 
 
  Gtrs I, II 
  +E  E +S  E. E. S +E  E   +E  E +S  E. E. S +E  E 
|-----3-(3)---------------|-------------------------| 
|-----3-(3)-3-------------|-------------------------| 
|-(2)-0-(0)-2--2--------2-|-(2)-2-(2)----4--4-(4)-4-| 
|-(2)-0-(0)-0--2--------2-|-(2)-2-(2)-2--4--4-(4)-4-| 
|-(0)----------0--------0-|-(0)-0-(0)-2--2--0-(0)---| 
|-----3-(3)-------3-(3)---|-----------0-----------7-| 
 
 
  +E  E +S  E. E. S +E  E   E. S +E  E +S  E. E S S 
|-------------------------|-3--3-(3)-3-(3)-3--3------| 
|-------------------------|-3--3-(3)-3-(3)-3--3-3-3--| 
|-(4)-2-(2)----4--4-(4)-4-|-0--0-(0)-0-(0)-0--0-2-2--| 
|-(4)-2-(2)-2--4--4-(4)-4-|-0--0-(0)-0-(0)-0--0-0-0--| 
|-----0-(0)-2--2--0-(0)---|--------------------------| 
|-(7)-------0-----------7-|-3--3-(3)-3-(3)-3--3------| 
 
 
  E. S +E  E +H       S S S S S E S E S S +S  S E 
|-------------------|-----------------------------| 
|-3--3-(3)-3-(3)----|-----------------------------| 
|-2--2-(2)-2-(2)----|-----------------------------| 
|-0--0-(0)-0-(0)----|---0-------------------------| 
|-------------------|-----4-2-4---2-0-2-1-(1)-2-2-| 
|-------------------|-0---------3-----------------| 
 
 
  S S S S S E S E S S +S  S E 
|------------------------------| 
|------------------------------| 
|------------------------------| 
|---0--------------------------| 
|-----4-2-4---2-0-2-1-(1)-2-2--| 
|-0---------3------------------| 
 
 
  S S S S S E S E S S +S  S E   S S S S S E S E S S +S  S E 
|-----------------------------|------------------------------| 
|-----------------------------|------------------------------| 
|-----------------------------|------------------------------| 
|---0-------------------------|---0--------------------------| 
|-----4-2-4---2-0-2-1-(1)-2-2-|-----4-2-4---2-0-2-1-(1)-2-2--| 
|-0---------3-----------------|-0---------3------------------| 
 
 
  S S S S S E S E S S +S  S E   S S S S S E S E S S +S  S E 
|-----------------------------|------------------------------| 
|-----------------------------|------------------------------| 
|---0-------------------------|---0--------------------------| 
|-----4-2-4---2-0-2-1-(1)-2-2-|-----4-2-4---2-0-2-1-(1)-2-2--| 
|-0---------3-----------------|-0---------3------------------| 
|-----------------------------|------------------------------| 
 
 
  S S S S S E S E S S +S  S E 
|-----------------------------| 
|-----------------------------| 
|-----------------------------| 
|---0-------------------------| 
|-----4-2-4---2-0-2-1-(1)-2-2-| 
|-0---------3-----------------| 
 
 
  S S S S S E S E S S +S  S E   E E +S  E. E. S +E  E 
|-----------------------------|------------------------| 
|-----------------------------|------------------------| 
|-----------------------------|---2-(2)----4--4-(4)-4--| 
|---0-------------------------|---2-(2)-2--4--4-(4)-4--| 
|-----4-2-4---2-0-2-1-(1)-2-2-|---0-(0)-2--2--0-(0)----| 
|-0---------3-----------------|---------0-----------7--| 
 
 
  +E  E +S  E. E. S +E  E   +E  E +S  E. E. S +E  E 
|-------------------------|-----3-(3)---------------| 
|-------------------------|-----3-(3)-3-------------| 
|-(4)-2-(2)----4--4-(4)-4-|-(4)-0-(0)-2--2--------2-| 
|-(4)-2-(2)-2--4--4-(4)-4-|-(4)-0-(0)-0--2--------2-| 
|-----0-(0)-2--2--0-(0)---|--------------0--------0-| 
|-(7)-------0-----------7-|-(7)-3-(3)-------3-(3)---| 
 
 
  +E  E +S  E. E. S +E  E   +E  E +S  E. E. S +E  E 
|-----3-(3)---------------|-------------------------| 
|-----3-(3)-3-------------|-------------------------| 
|-(2)-0-(0)-2--2--------2-|-(2)-2-(2)----4--4-(4)-4-| 
|-(2)-0-(0)-0--2--------2-|-(2)-2-(2)-2--4--4-(4)-4-| 
|-(0)----------0--------0-|-(0)-0-(0)-2--2--0-(0)---| 
|-----3-(3)-------3-(3)---|-----------0-----------7-| 
 
 
  Gtr I 
  +E  E +S  E. E. S +E  E   E. S +E  E +S  E. E S S   E. S +E  E +H       W 
|-------------------------|-3--3-(3)-3-(3)-3--3-----|----------8-(8)----|-7----| 
|-------------------------|-3--3-(3)-3-(3)-3--3-3-3-|-3--3-(3)----------|------| 
|-(4)-2-(2)----4--4-(4)-4-|-0--0-(0)-0-(0)-0--0-2-2-|-2--2-(2)----------|------| 
|-(4)-2-(2)-2--4--4-(4)-4-|-0--0-(0)-0-(0)-0--0-0-0-|-0--0-(0)----------|------| 
|-----0-(0)-2--2--0-(0)---|-------------------------|-------------------|------| 
|-(7)-------0-----------7-|-3--3-(3)-3-(3)-3--3-----|-------------------|------| 
| 
| Gtr II 
| +E  E +S  E. E. S +E  E   E. S +E  E +S  E. E S S   E. S +E  E +H       W 
|-------------------------|-3--3-(3)-3-(3)-3--3-----|-------------------|------| 
|-------------------------|-3--3-(3)-3-(3)-3--3-3-3-|-3--3-(3)-3-(3)----|------| 
|-(4)-2-(2)----4--4-(4)-4-|-0--0-(0)-0-(0)-0--0-2-2-|-2--2-(2)-2-(2)----|-2----| 
|-(4)-2-(2)-2--4--4-(4)-4-|-0--0-(0)-0-(0)-0--0-0-0-|-0--0-(0)-0-(0)----|-2----| 
|-----0-(0)-2--2--0-(0)---|-------------------------|-------------------|-0----| 
|-(7)-------0-----------7-|-3--3-(3)-3-(3)-3--3-----|-------------------|------| 
 
 
   H     E S S E S S   S E S +Q      S S S S +E  E 
|--5-----------5-----|-------------------------------| 
|--------3-----------|-5-3-5-(5)-----5-----5-(5)-----| 
|--------------------|-----9-(9)-----7-6-6-7-(7)-----| 
|--------------------|-------------------------------| 
|----------5-5-----5-|-------------------------------| 
|----------------0---|-------------------------------| 
| 
| +W                   Q      E  S S Q        E  S S 
|--------------------|-------------------------------| 
|--------------------|-------------------------------| 
|-(2)----------------|-------------------------------| 
|-(2)----------------|-2---------0-0-0---------------| 
|-(0)----------------|-2-------------------------4-4-| 
|--------------------|-0---------0-0-0-----------0-0-| 
 
 
  S S S S +E  E   S E.     Q 
|-------------------7------------| 
|-5-----5-(5)-------8------9-----| 
|-6-4-4-6-(6)-6------------9-----| 
|-----------------5--------------| 
|-----------------5--------------| 
|-----------------5--------------| 
| 
| Q        E  S S E    S S E S S 
|--------------------------------| 
|--------------------------------| 
|--------------------------------| 
|-------------2-2-2----2-2-2-2-2-| 
|-4-----------2-2-2----2-2-2-2-2-| 
|-0-----------0-0-0----0-0-0-0-0-| 
 
 
  S S S S +Q      S S S S +E  E     S S S S +E  S S S   E.    S   S  E 
|---------------------------------|--------------------10----12-----10-| 
|-------5-(5)-----5-----5-(5)-----|-5-----2-(2)------------------12----| 
|-9-7-7-9-(9)-----7-6-6-7-(7)-----|-6-4-4-------4----------------------| 
|---------------------------------|---------------5-5------------------| 
|---------------------------------|-----------------5------------------| 
|---------------------------------|-----------------5------------------| 
| 
| Q        E  S S Q        E  S S   Q        E  E   E.     S +E      E 
|---------------------------------|------------------------------------| 
|---------------------------------|------------------------------------| 
|---------------------------------|-----------------2----------------2-| 
|-2-----------0-0-0---------------|-----------------2------2-(2)-----2-| 
|-2---------------------------4-4-|-4-----------2---0------2-(2)-----0-| 
|-0-----------0-0-0-----------0-0-|-0-----------0----------0-(0)-------| 
 
 
   +S   S  E  +E.    S  +S   S  S  S  E.    S 
|-(10)-10-10-(10)---10-(10)-10-10-10-12----12---| 
|-----------------------------------------------| 
|-----------------------------------------------| 
|-----------------------------------------------| 
|-----------------------------------------------| 
|-----------------------------------------------| 
| 
|   Q          E  S  S   Q            E  S  S 
|-----------------------------------------------| 
|-----------------------------------------------| 
|-----------------------------------------------| 
|---2-------------0--0---0----------------------| 
|---2------------------------------------4--4---| 
|---0-------------0--0---0---------------0--0---| 
 
 
   S  S  S  S  Q     E  E    E.    S 
|-12-10----------------15---15----15-| 
|----12-10-12------------------------| 
|----------12------------------------| 
|-------------14---------------------| 
|------------------------------------| 
|------------------------------------| 
| 
|  Q           E S S E  S S  E  S  S 
|------------------------------------| 
|------------------------------------| 
|------------------------------------| 
|----------------2-2-2--2-2--2--2--2-| 
|--4-------------2-2-2--2-2--2--2--2-| 
|--0-------------0-0-0--0-0--0--0--0-| 
 
 
   +S   S  S  S  S  S  S  S  S  S  S  S S S E     E S S S S S S S  E.    E  S  S 
|-(15)-15----15---------------------------------|---------8---8-8-------------15-| 
|---------17-17-17-15-15----------10--------5---|---3-3-3------------------------| 
|---------------19-16----16-16-14-12--9-9-7-7---|------------------7-------------| 
|------------------------19-19-17-14-12-9-9-----|--------------------------------| 
|-----------------------------------------------|--------------------------------| 
|-----------------------------------------------|--------------------------------| 
| 
|   Q            E     S  S  Q          E   S S   Q     E   E   E.    S +E  E 
|-----------------------------------------------|--------------------------------| 
|-----------------------------------------------|--------------------------------| 
|-----------------------------------------------|---------------2-----------2----| 
|---2------------------0--0--0------------------|---------------2-----2-(2)-2----| 
|---2---------------------------------------4-4-|-4---------2---0-----2-(2)-0----| 
|---0------------------0--0--0--------------0-0-|-0---------0---------0-(0)------| 
 
 
   +E   S S  E.    S  +E   S  S  E.    S 
|-(15)------------15-(15)-------------15-| 
|------17---17------------17-15-17-------| 
|----------------------------------------| 
|----------------------------------------| 
|----------------------------------------| 
|----------------------------------------| 
| 
|   Q        E  S  S   Q         E  S  S 
|----------------------------------------| 
|----------------------------------------| 
|----------------------------------------| 
|---2-----------0--0---0-----------------| 
|---2-------------------------------4--4-| 
|---0-----------0--0---0------------0--0-| 
 
 
   S  S  S  S  S  S  S  S  S  S  S  S  S  S  S  S 
|-15-15-15----15-15-15----15-15-15----15-15-15----| 
|----------17----------17----------17----------17-| 
|-------------------------------------------------| 
|-------------------------------------------------| 
|-------------------------------------------------| 
|-------------------------------------------------| 
| 
|  Q           E     S  S  E     S  S  E     S  S 
|-------------------------------------------------| 
|-------------------------------------------------| 
|-------------------------------------------------| 
|--------------------2--2--2-----2--2--2-----2--2-| 
|--4-----------------2--2--2-----2--2--2-----2--2-| 
|--0-----------------0--0--0-----0--0--0-----0--0-| 
 
 
   S  S  S  S  S  S  S  S  S  E  S  E  S  S 
|-15-15-15----15-15-15----15-17-22----22----| 
|----------17----------17----------22----22-| 
|-------------------------------------------| 
|-------------------------------------------| 
|-------------------------------------------| 
|-------------------------------------------| 
| 
|  Q           E     S  S  Q        E  S  S 
|-------------------------------------------| 
|-------------------------------------------| 
|-------------------------------------------| 
|--2-----------------0--0--0----------------| 
|--2-----------------------------------4--4-| 
|--0-----------------0--0--0-----------0--0-| 
 
 
   +S   S  E  S  S  S S  E   S  S  +S   S  S  S 
|------22----22----22-------22---------22-------| 
|-(22)----22----22------22-----22-(22)----22-22-| 
|-----------------------------------------------| 
|-----------------------------------------------| 
|-----------------------------------------------| 
|-----------------------------------------------| 
| 
|   Q         E     E    E.     S  +E      E 
|-----------------------------------------------| 
|-----------------------------------------------| 
|------------------------2-----------------2----| 
|------------------------2------2--(2)-----2----| 
|---4---------------2----0------2--(2)-----0----| 
|---0---------------0-----------0--(0)----------| 
 
 
   S  S  S  S  S  S  S  S  S  S  S  S  S  S  S  S 
|-22-------22-------22----------22----22-------22-| 
|-22-22-22-22-22-22-22-22-22-22----22-22-22-22-22-| 
|-------------------------------------------------| 
|-------------------------------------------------| 
|-------------------------------------------------| 
|-------------------------------------------------| 
| 
|  Q           E     S  S  Q           E     S  S 
|-------------------------------------------------| 
|-------------------------------------------------| 
|-------------------------------------------------| 
|--2-----------------0--0--0----------------------| 
|--2-----------------------------------------4--4-| 
|--0-----------------0--0--0-----------------0--0-| 
 
 
   S  S  S  S  S  S  S  S  S  S  S  S  S  E    S 
|-------22-------22-------22-------22------------| 
|-22-22-22-22-22-22-22-22-22-22-22-22-22-22------| 
|---------------------------------------------23-| 
|------------------------------------------------| 
|------------------------------------------------| 
|------------------------------------------------| 
| 
|  Q           E     S  S  E     S  S  E    S  S 
|------------------------------------------------| 
|------------------------------------------------| 
|------------------------------------------------| 
|--------------------2--2--2-----2--2--2----2--2-| 
|--4-----------------2--2--2-----2--2--2----2--2-| 
|--0-----------------0--0--0-----0--0--0----0--0-| 
 
 
   S  S  S  S  s  S  E    +E   S  S  S  S  S  S 
|-----------------------------------------------*| 
|-------22-21-------17---(17)-15----------------*| 
|-24-21-------21-19--------------16-------------*| 
|-----------------------------------17----19-18-*| 
|--------------------------------------19-------*| 
|-----------------------------------------------*| 
| 
|  Q           E     S S   Q         E     S  S 
|-----------------------------------------------*| 
|-----------------------------------------------*| 
|-----------------------------------------------*| 
|--2-----------------0-0---0--------------------*| 
|--2---------------------------------------4--4-*| 
|--0-----------------0-0---0---------------0--0-*| 
 
 
 
 

    	
fixar
fixar inscrever-se

enviado porenviado por: Vallim guitar
cifra enviadaCorrigida por: sem correções
logo top cifrasComente
ico música do artistaMúsicas deste artista
ico curtiuCurtiu?
ico destaqueDestaque
Petaxxon Comunicação Online

Cifras.com.br - Melhor e mais completo site de cifras e tablaturas do Brasil Mais de 1 milhão de acordes de músicas cadastradas desde 2003
As informações contidas no nosso site são colaborações de seus usuários e podem conter erros, sendo assim, não nos responsabilizamos sobre nenhuma destas.

close
menos
mais
close
Cor dos acordes:

Cor da letra:

close
Alinhar acordes a direita Alinhar acordes a esquerda Alinhar acordes em baixo Alinhar acordes no topo
close
  Mostrar todos os acordes Esconder acordes muito fáceis Esconder acordes fáceis Esconder acordes intermediários
redimensionar
glossário