Cifras e Tablaturas
AC/DC

AC/DC

Hail Ceaser

Cifras Cancelar Versão de Impressão

AC/DC - Hail Ceaser

Tom:

  			Standard tuning 
Intro: 
--------------------------------- 
--------------------------------- 
--------------------------------- 
---2-----2-----2-----2----------- 
-2-2---2-2---2-2---2-0----------- 
-3-0---3-0---3-0---3------------- 
Verse: 
--------------------------------- 
--------------------------------- 
--------------------------------- 
-2-----2-----2------------------- 
-2--2--0--2--2------------------- 
-0--3-----3--0------------------- 
 
 

    	
fixar
fixar inscrever-se

enviado porenviado por: anônimo
cifra enviadaCorrigida por: sem correções
logo top cifrasComente
ico música do artistaMúsicas deste artista
ico curtiuCurtiu?
ico destaqueDestaque
Petaxxon Comunicação Online

Cifras.com.br - Melhor e mais completo site de cifras e tablaturas do Brasil Mais de 1 milhão de acordes de músicas cadastradas desde 2003
As informações contidas no nosso site são colaborações de seus usuários e podem conter erros, sendo assim, não nos responsabilizamos sobre nenhuma destas.

close
menos
mais
close
Cor dos acordes:

Cor da letra:

close
Alinhar acordes a direita Alinhar acordes a esquerda Alinhar acordes em baixo Alinhar acordes no topo
close
  Mostrar todos os acordes Esconder acordes muito fáceis Esconder acordes fáceis Esconder acordes intermediários
redimensionar
glossário