Cifras e Tablaturas
Aiden

Aiden

I Set My Friends On Fire

Cifras Cancelar Versão de Impressão Print

Aiden - I Set My Friends On Fire

Tom:

  			   Intro 

E---------------------------------------------| 
B---------------------------------------------| 
G--3-3-3-3-3-3-3---------3-3-3-3-3-3-3--------| Repeat 
D---------------------------------------------| 2 times 
A----------------2-2-2-2--------------2-2-2-2-| 
E----------------2-2-2-2--------------2-2-2-2-| 

   Verse 

E------------------------------------| 
B------------------------------------| 
G------------------------------------| 
D--------2-2-------2-2---------------| Repeat 2 times 
A--------2-2-------2-2-2-2-2-2-2-2-2-| 
E--1-1-1-0-0-1-1-1-0-0-2-2-2-2-2-2-2-| 

   Bridge 

E-------------------------------------------------------------------------------| 
B-------------------------------------------------------------------------------| 
G-3-3-3-3-4-4-4-4-5-5-5-5-6-6-6-6-7-7-7-7-8-8-8-8-------------------------------|Repeat 
D-3-3-3-3-4-4-4-4-5-5-5-5-6-6-6-6-7-7-7-7-8-8-8-8-5-4-9-5-4-9-5-4-9-5-4-9-5-4-9-|2 times 
A-------------------------------------------------------------------------------| 
E-------------------------------------------------------------------------------| 
    	
fixar
fixar inscrever-se

enviado porenviado por: Indestructible
cifra enviadaCorrigida por: sem correções
logo top cifrasComente
ico música do artistaMúsicas deste artista
ico curtiuCurtiu?
ico destaqueDestaque
Petaxxon Comunicação Online

Cifras.com.br - Melhor e mais completo site de cifras e tablaturas do Brasil Mais de 1 milhão de acordes de músicas cadastradas desde 2003
As informações contidas no nosso site são colaborações de seus usuários e podem conter erros, sendo assim, não nos responsabilizamos sobre nenhuma destas.

close
menos
mais
close
Cor dos acordes:

Cor da letra:

close
Alinhar acordes a direita Alinhar acordes a esquerda Alinhar acordes em baixo Alinhar acordes no topo
close
  Mostrar todos os acordes Esconder acordes muito fáceis Esconder acordes fáceis Esconder acordes intermediários
redimensionar
glossário