Cifras e Tablaturas
Alceu Valença

Alceu Valença

Anunciação - Introdução

Cifras Cancelar Versão de Impressão Print

Alceu Valença - Anunciação - Introdução

Tom:

  • 0:00 / 0:00
  			Na bruma leve das paixoes que vem de dentro 

E|----------------------------------------------------| 
B|-----2-3-2------------------------------------------| 
G|-2-4-------4-2---2-4-2-4-4--------------------------| 
D|---------------4------------------------------------| 
A|----------------------------------------------------| 
E|----------------------------------------------------| 

Tu vens chegando pra brincar no meu quintal 

E|----------------------------------------------------| 
B|-----2-3-2-------2----------------------------------| 
G|-2-4-------4-2-----4-2-2----------------------------| 
D|---------------4------------------------------------| 
A|----------------------------------------------------| 
E|----------------------------------------------------| 


E assim vai durante as estrofes. 
    	

enviado porenviado por: manelkbessa
cifra enviadaCorrigida por: sem correções
logo top cifrasComente
ico música do artistaMúsicas deste artista
ico curtiuCurtiu?
ico destaqueDestaque
Petaxxon Comunicação Online

Cifras.com.br - Melhor e mais completo site de cifras e tablaturas do Brasil Mais de 1 milhão de acordes de músicas cadastradas desde 2003
As informações contidas no nosso site são colaborações de seus usuários e podem conter erros, sendo assim, não nos responsabilizamos sobre nenhuma destas.

close
menos
mais
close
Cor dos acordes:

Cor da letra:

close
Alinhar acordes a direita Alinhar acordes a esquerda Alinhar acordes em baixo Alinhar acordes no topo
close
  Mostrar todos os acordes Esconder acordes muito fáceis Esconder acordes fáceis Esconder acordes intermediários
redimensionar
glossário