Cifras e Tablaturas
Anaal Nathrakh

Anaal Nathrakh

Forging Towards The Sunset

Cifras Cancelar Versão de Impressão Print

Anaal Nathrakh - Forging Towards The Sunset

Tom:

  • 0:00 / 0:00
  			
  
Tuning: 7 string BEADGBE  

Riff 1 (w/ dist) 

E|-----------------------------|-------------------------------| 
B|-----------------------------|-------------------------------| 
G|-----5-5-5-5-4-4-4-4-5-5-5-5-|-4-4-4-4-5-5-5-5-4-4-4-4-------| 
D|-----------------------------|-------------------------------| 
A|-----------------------------|-------------------------------| 
E|-2---------------------------|--------------------------3----| 
B|-0---------------------------|--------------------------1----| 

E|-----------------------------|-------------------------------| 
B|-----------------------------|-------------------------------| 
G|-----5-5-5-5-4-4-4-4-5-5-5-5-|-4-4-4-4-5-5-5-5-4-4-4-4-------| 
D|-----------------------------|-------------------------------| 
A|-----------------------------|-------------------------------| 
E|-2---------------------------|--------------------------3----| 
B|-0---------------------------|--------------------------1----| 

E|-----------------------------|-------------------------------| 
B|-----------------------------|-------------------------------| 
G|-----5-5-5-5-4-4-4-4-5-5-5-5-|-4-4-4-4-5-5-5-5-4-4-4-4-------| 
D|-----------------------------|-------------------------------| 
A|-----------------------------|-------------------------------| 
E|-2---------------------------|--------------------------3----| 
B|-0---------------------------|--------------------------1----| 

E|---------------------------|---------------------| 
B|---------------------------|---------------------| 
G|-----5-5-5-5-4-4-4-4-------|---------------------| 
D|---------------------------|---------------------| 
A|---------------------------|---------------------| 
E|-2--------------------3----|-2----6----5----3----| 
B|-0--------------------1----|-0----4----3----1----| 

Riff 2 (w/ dist) 

E|-------------------------------------|-------------------------------------| 
B|-------------------------------------|-------------------------------------| 
G|-------------------------------------|-------------------------------------| 
D|-------------------------------------|-------------------------------------| 
A|-------------------------------------|-9-9-9-9-9-9-9-9---------------------| 
E|-----------------9-9-9-9-10-10-10-10-|-----------------10-10-10-10-9-9-9-9-| 
B|-0-0-0-0-0-0-0-0---------------------|-------------------------------------| 

E|-------------------------------------|---------------------------------------------| 
B|-------------------------------------|---------------------------------------------| 
G|-------------------------------------|---------------------------------------------| 
D|-------------------------------------|---------------------------------------------| 
A|-------------------------------------|---------------------------------------------| 
E|-----------------9-9-9-9-10-10-10-10-|-12-12-12-12-12-12-12-12-10-10-10-10-9-9-9-9-| 
B|-8-8-8-8-8-8-8-8---------------------|---------------------------------------------| 

E|-------------------------------------|-------------------------------------| 
B|-------------------------------------|-------------------------------------| 
G|-------------------------------------|-------------------------------------| 
D|-------------------------------------|-------------------------------------| 
A|-------------------------------------|-9-9-9-9-9-9-9-9---------------------| 
E|-----------------9-9-9-9-10-10-10-10-|-----------------10-10-10-10-9-9-9-9-| 
B|-0-0-0-0-0-0-0-0---------------------|-------------------------------------| 

E|---------------------------------------------| 
B|---------------------------------------------| 
G|---------------------------------------------| 
D|---------------------------------------------| 
A|-10-10-10-10-10-10-10-10---------------------| 
E|-------------------------10-10-10-10-9-9-9-9-| 
B|---------------------------------------------| 

E|---------------------------------------------| 
B|---------------------------------------------| 
G|---------------------------------------------| 
D|---------------------------------------------| 
A|---------------------------------------------| 
E|-12-12-12-12-12-12-12-12-10-10-10-10-9-9-9-9-| 
B|---------------------------------------------| 

Riff 3 (w/ dist) 

E|-------------------------------------|-------------------------------------| 
B|-------------------------------------|-------------------------------------| 
G|-------------------------------------|-------------------------------------| 
D|-------------------------------------|-------------------------------------| 
A|-------------------------------------|-------------------------------------| 
E|-----------------9-9-9-9-10-10-10-10-|-----------------10-10-10-10-9-9-9-9-| 
B|-0-0-0-0-0-0-0-0---------------------|-7-7-7-7-7-7-7-7---------------------| 

E|-------------------------------------|---------------------------------| 
B|-------------------------------------|---------------------------------| 
G|-------------------------------------|---------------------------------| 
D|-------------------------------------|---------------------------------| 
A|-------------------------------------|---------------------------------| 
E|-----------------9-9-9-9-10-10-10-10-|---------------------------------| 
B|-8-8-8-8-8-8-8-8---------------------|-5-5-5-5-5-5-5-5-3-3-3-3-2-2-2-2-| 

E|-------------------------------------|-------------------------------------| 
B|-------------------------------------|-------------------------------------| 
G|-------------------------------------|-------------------------------------| 
D|-------------------------------------|-------------------------------------| 
A|-------------------------------------|-------------------------------------| 
E|-----------------9-9-9-9-10-10-10-10-|-----------------10-10-10-10-9-9-9-9-| 
B|-0-0-0-0-0-0-0-0---------------------|-7-7-7-7-7-7-7-7---------------------| 

E|-------------------------------------|---------------------------------| 
B|-------------------------------------|---------------------------------| 
G|-------------------------------------|---------------------------------| 
D|-------------------------------------|---------------------------------| 
A|-------------------------------------|---------------------------------| 
E|-----------------9-9-9-9-10-10-10-10-|-6-6-6-6-6-6-6-6---------6-6-6-6-| 
B|-8-8-8-8-8-8-8-8---------------------|-----------------7-7-7-7---------| 

Riff 4a (w/ dist) 

E|----------------------------------------|-------------------------------------------| 
B|----------------------------------------|--------------------13--13--13--13--13--13-| 
G|----------------------------------------|--------------------16b-16b-16b-16b-16b-16b| 
D|----------------------------------------|-------------------------------------------| 
A|----------------------------------------|-------------------------------------------| 
E|----------------------------------------|-------------------------------------------| 
B|-0--0--0--0---0---0--0--0--0--0---0---0-|-0--0--0--0---0---0------------------------| 
   *  *  *             *  *  *              *  *  *   
E|----------------------------------------|---------------------------| 
B|----------------------------------------|---------------------------| 
G|----------------------------------------|---------------------------| 
D|----------------------------------------|---------------------------| 
A|----------------------------------------|---------------------------| 
E|----------------------------------------|---------------------------| 
B|-0--0--0--0---0---0--0--0--0--0---0---0-|-0--0--0--0---0---0--------| 
   *  *  *             *  *  *              *  *  *  

Riff 4b (w/ dist) 

E|----------------------------------------|---------------------------------------------| 
B|----------------------------------------|---------------------------------------------| 
G|----------------------------------------|---------------------------------------------| 
D|----------------------------------------|---------------------------------------------| 
A|----------------------------------------|---------------------------------------------| 
E|----------------------------------------|---------------------------------------------| 
B|-0--0--0--0---0---0--0--0--0--0---0---0-|-0--0--0--0---0---0--13--13--13--13--13--13--| 
   *  *  *             *  *  *               *  *  *            
E|-----------------------------------------|---------------------------| 
B|-----------------------------------------|---------------------------| 
G|-----------------------------------------|---------------------------| 
D|-----------------------------------------|---------------------------| 
A|-----------------------------------------|---------------------------| 
E|-----------------------------------------|---------------------------| 
B|-0--0--0--0---0---0--0--0--0--0---0---0--|-0--0--0--0---0---0--------| 
   *  *  *             *  *  *               *  *  * 

Riff 5 (w/ dist) 

E|---------------------------------|---------------------------------| 
B|---------------------------------|---------------------------------| 
G|---------------------------------|---------------------------------| 
D|---------------------------------|---------------------------------| 
A|-5---5---5---5---5---5---5---5---|-5---5---5---5---5---5---5---5---| 
E|-3---3---3---3---3---3---3---3---|-3---3---3---3---3---3---3---3---| 
B|---------------------------------|---------------------------------| 

E|---------------------------------|---------------------------------| 
B|---------------------------------|---------------------------------| 
G|---------------------------------|---------------------------------| 
D|---------------------------------|---------------------------------| 
A|-2---2---2---2---2---2---2---2---|-2---2---2---2---2---2---2---2---| 
E|-0---0---0---0---0---0---0---0---|-0---0---0---0---0---0---0---0---| 
B|---------------------------------|---------------------------------| 

E|---------------------------------|---------------------------------| 
B|---------------------------------|---------------------------------| 
G|---------------------------------|---------------------------------| 
D|---------------------------------|---------------------------------| 
A|---------------------------------|---------------------------------| 
E|-2---2---2---2---2---2---2---2---|-2---2---2---2---2---2---2---2---| 
B|-0---0---0---0---0---0---0---0---|-0---0---0---0---0---0---0---0---| 

E|---------------------------------|---------------------------------| 
B|---------------------------------|---------------------------------| 
G|---------------------------------|---------------------------------| 
D|---------------------------------|---------------------------------| 
A|-7---7---7---7---7---7---7---7---|-7---7---7---7---7---7---7---7---| 
E|-5---5---5---5---5---5---5---5---|-5---5---5---5---5---5---5---5---| 
B|---------------------------------|---------------------------------| 

E|---------------------------------|---------------------------------| 
B|---------------------------------|---------------------------------| 
G|---------------------------------|---------------------------------| 
D|---------------------------------|---------------------------------| 
A|-5---5---5---5---5---5---5---5---|-5---5---5---5---5---5---5---5---| 
E|-3---3---3---3---3---3---3---3---|-3---3---3---3---3---3---3---3---| 
B|---------------------------------|---------------------------------| 

E|---------------------------------|---------------------------------| 
B|---------------------------------|---------------------------------| 
G|---------------------------------|---------------------------------| 
D|---------------------------------|---------------------------------| 
A|-2---2---2---2---2---2---2---2---|-2---2---2---2---2---2---2---2---| 
E|-0---0---0---0---0---0---0---0---|-0---0---0---0---0---0---0---0---| 
B|---------------------------------|---------------------------------| 

E|---------------------------------|---------------------------------| 
B|---------------------------------|---------------------------------| 
G|---------------------------------|---------------------------------| 
D|---------------------------------|---------------------------------| 
A|---------------------------------|---------------------------------| 
E|-2---2---2---2---2---2---2---2---|-2---2---2---2---2---2---2---2---| 
B|-0---0---0---0---0---0---0---0---|-0---0---0---0---0---0---0---0---| 

E|---------------------------------|---------------------------------| 
B|---------------------------------|---------------------------------| 
G|---------------------------------|---------------------------------| 
D|---------------------------------|---------------------------------| 
A|-4---4---4---4---4---4---4---4---|-4---4---4---4---4---4---4---4---| 
E|-2---2---2---2---2---2---2---2---|-2---2---2---2---2---2---2---2---| 
B|---------------------------------|---------------------------------| 

Riff 6 (w/ dist) 

E|---------------------------------|---------------------------------| 
B|---------------------------------|---------------------------------| 
G|---------------------------------|---------------------------------| 
D|---------------------------------|---------------------------------| 
A|---------2-2-2-2-5-5-5-5-2-2-2-2-|---------2-2-2-2-5-5-5-5-2-2-2-2-| 
E|-3-3-3-3-------------------------|-4-4-4-4-------------------------| 
B|---------------------------------|---------------------------------| 

E|---------------------------------|---------------------------------| 
G|---------------------------------|---------------------------------| 
D|---------------------------------|---------------------------------| 
A|---------4-4-4-4-7-7-7-7-4-4-4-4-|---------4-4-4-4-7-7-7-7-4-4-4-4-| 
E|-5-5-5-5-------------------------|-6-6-6-6-------------------------| 
B|---------------------------------|---------------------------------| 

Riff 7 (w/ dist) 

E|-------------------------------------|-------------------------------------| 
B|-------------------------------------|-------------------------------------| 
G|-------------------------------------|-------------------------------------| 
D|-------------------------------------|-------------------------------------| 
A|---------9-9-10-10-9-9-7-7-----------|-------------------------------------| 
E|---------------------------10-10-9-9-|-------------9-9-10-10-----12-12-9-9-| 
B|-0-0-0-0-----------------------------|-8-8-8-8-8-8-----------8-8-----------| 

E|-------------------------------------|-----------------------------------| 
B|-------------------------------------|-----------------------------------| 
G|-------------------------------------|-----------------------------------| 
D|-------------------------------------|-----------------------------------| 
A|---------9-9-10-10-9-9-7-7-----------|-------------10-10-7-7-------------| 
E|---------------------------10-10-9-9-|-----------------------9-9-6-6-----| 
B|-0-0-0-0-----------------------------|-8-8-8-8-8-8-------------------7-7-| 

Riff 8 (w/ dist) 

E|---------------------------------|---------------------------------| 
B|---------------------------------|---------------------------------| 
G|---------------------------------|---------------------------------| 
D|---------------------------------|---------------------------------| 
A|---------------------------------|---------------------------------| 
E|---------------------------------|---------------------------------| 
B|-0-0-0-0-0-0-0-0-0---------------|-0-0-0-0-0-0-0-0-0-0-0-0-0-0-0-0-| 
   * * * * * * * * *                 * * * * * * * * * * * * * * * * 
E|---------------------------------|-----------------------------------------| 
B|---------------------------------|-----------------------------------------| 
G|---------------------------------|-----------------------------------------| 
D|---------------------------------|-----------------------------------------| 
A|---------------------------------|-----------------------------------------| 
E|-------------------------9-9-9-9-|-10-10-10-10---------12-12-12-12-9-9-9-9-| 
B|-8-8-8-8-8-8-8-8-8-8-8-8---------|-------------8-8-8-8---------------------| 

E|---------------------------------|---------------------------------| 
B|---------------------------------|---------------------------------| 
G|---------------------------------|---------------------------------| 
D|---------------------------------|---------------------------------| 
A|---------------------------------|---------------------------------| 
E|---------------------------------|---------------------------------| 
B|-0-0-0-0-0-0-0-0-0---------------|-0-0-0-0-0-0-0-0-0-0-0-0-0-0-0-0-| 
   * * * * * * * * *                 * * * * * * * * * * * * * * * * 
E|-------------------------------------|---------------------------------| 
B|-------------------------------------|---------------------------------| 
G|-------------------------------------|---------------------------------| 
D|-------------------------------------|---------------------------------| 
A|-------------------------10-10-10-10-|-7-7-7-7-------------------------| 
E|-------------------------------------|---------9-9-9-9-6-6-6-6---------| 
B|-8-8-8-8-8-8-8-8-8-8-8-8-------------|-------------------------7-7-7-7-| 

Riff 9 (w/ dist) 

E|---------------------------------|---------------------------------| 
B|---------------------------------|---------------------------------| 
G|---------------------------------|---------------------------------| 
D|-------------------------5-5-5-5-|-4-4-4-4-5-5-5-5-7-7-7-7-5-5-5-5-| 
A|-----------------5-5-5-5---------|---------------------------------| 
E|-3-3-3-3-6-6-6-6-----------------|---------------------------------| 
B|---------------------------------|---------------------------------| 

E|---------------------------------|-------------------------------------| 
B|---------------------------------|-------------------------------------| 
G|---------------------------------|-------------------------------------| 
D|-------------------------8-8-8-8-|-7-7-7-7-8-8-8-8-10-10-10-10-8-8-8-8-| 
A|-----------------8-8-8-8---------|-------------------------------------| 
E|-6-6-6-6-9-9-9-9-----------------|-------------------------------------| 
B|---------------------------------|-------------------------------------| 

Riff 10 (w/ dist) 

E|-------|------|-------|------|-------|------|-------|------| 
B|-------|------|-------|------|-------|------|-------|------| 
G|-------|------|-------|------|-------|------|-------|------| 
D|-------|------|-------|------|-5-----|------|-8-----|------| 
A|-5-----|------|-8-----|------|-5-----|------|-8-----|------| 
E|-3-----|------|-6-----|------|-3-----|------|-6-----|------| 
B|-------|------|-------|------|-3-----|------|-6-----|------| 

SONG STRUCTURE 

INTRO 
Riff 1 x2 
Riff 2 x1 

VERSE 
Riff 3 x2 
Riff 4a x1 + Riff 4b x1 

Chorus 
Riff 5 x1 
Riff 6 x1 

verse 2 
Riff 1 x1 
Riff 3 x2 
Riff 4a x1 + Riff 4b x1 

Chorus 2 
Riff 5 x1 
Riff 6 x1 

BRIDGE 
Riff 7 x2 
Riff 8 x2 
Riff 9 x2 + Riff 10 x1 

Chorus 3 
Riff 5 x1 
Riff 6 x1 

OUTRO 
Riff 1 (only last 4 bars) 

************************************ 
  
| *   palm mute 
| b   bend  

************************************ 
    	

enviado porenviado por: edsooliveira
cifra enviadaCorrigida por: sem correções
logo top cifrasComente
ico música do artistaMúsicas deste artista
ico curtiuCurtiu?
ico destaqueDestaque
Petaxxon Comunicação Online

Cifras.com.br - Melhor e mais completo site de cifras e tablaturas do Brasil Mais de 1 milhão de acordes de músicas cadastradas desde 2003
As informações contidas no nosso site são colaborações de seus usuários e podem conter erros, sendo assim, não nos responsabilizamos sobre nenhuma destas.

close
menos
mais
close
Cor dos acordes:

Cor da letra:

close
Alinhar acordes a direita Alinhar acordes a esquerda Alinhar acordes em baixo Alinhar acordes no topo
close
  Mostrar todos os acordes Esconder acordes muito fáceis Esconder acordes fáceis Esconder acordes intermediários
redimensionar
glossário